Oops, an error
Loading. Please wait.

Doktor Knark Is Back In The Town Tab

13 views 1 this week
no commentswrite comment
1 2 3 4 5
3 more votes to show rating
add to favorites
launch autoscroll
font size
0
reset
how to read this tab
guitar tuner
Autoscroll
slow
fast
+/-
esc
set tempo
stop
Help us to improve Ultimate-Guitar.com Take our survey!
×
Author
[Intro:] Em, Bm, Em, Bm, C, Bm, Am, Bb..
(Riff a)
  E|-------------------|
  B|-------------------|
  G|-------------------|
  D|-------------0-0---|
  A|---------2-2-------|
  E|-0-0-3-3-----------| 3x then:

(Riff b)
  E|-------------------|
  B|-------------------|
  G|---------------(8-7|5~)<--[fill A]
  D|-------------------|
  A|---------2-2-1~~~~~|
  E|-0-0-3-3-----------|

[Verse 1] Em, Bm, Em, Bm, C, Bm, Am, Bb..
  (Riff c)                  [fill B]
  E|-------------------|    -----------|
  B|-------------------|    (..-7h8p7~)|
  G|-------------------|    -----------|
  D|-------------0-0---| 2x -----------|
  A|---------2-2-------|    -----------|
  E|-0-0-3-3-----------|    -----------|

  (Riff a)
  E|-------------------|
  B|-------------------|
  G|-------------------|
  D|-------------0-0---|
  A|---------2-2-------|
  E|-0-0-3-3-----------| 3x then:

  (Riff b)
  E|-------------------|
  B|-------------------|
  G|---------------(8-7|5~)<--[fill A]
  D|-------------------|
  A|---------2-2-1~~~~~|
  E|-0-0-3-3-----------|

[Pre-chorus:] Em Bm Em Bm   [Chorus:] C G C G C G Am... Bb Bb Bb

   you're gonna bleed..  * |you're gonna cry..  |i'm.. lasergun!
  E|-------------------| * |--------|-----------|---------------|
  B|-------------------| * |--------|-----------|---------------|
  G|-------------------| * |--------|-----------|---------------|
  D|-------------------| * |--------|-----------|------8-8- 8...|
  A|-7~7---------------| * |--------|-----------|------8-8- 8...|
  E|----7/5~~7-0~~5-7~~| * |8~~~7~~~|<-tregånger|5~~~~~6-6- 6...|

[Verse 2]
  E|-----------------------------------|
  B|7-8-7-5~~~7-8-7-5~~----------------|
  G|-------------------7-4~~~7-4~7/2~~~| twice, then pre & chorus
  D|-----------------------------------|
  A|-----------------------------------|
  E|-----------------------------------|

[Solo:] -not guitar, but tabbed anyway-
  E|-------|---------------|-----------|------|
  B|-------|---------------|-----------|------|
  G|-------|---------------|-----------|------|
  D|----5~-|----5~-----5~--|<----------|------|
  A|5-7---7|5-7---7~5----7~|<}tregånger|5~~~--|
  E|-------|----------7----|<----------|---5~~|


************************************

| h  Hammer-on
| p  Pull-off
| /  Slide up
| ~  Vibrato

************************************


[Lyrics]

[Verse 1]
Doktor Knark is back in the town 
He's gonna kill Eva down 
He was shot and now angry 
At boyfriend Stjärn-Jerry 

[Pre-Chorus]
He shout to Eva you are Stjärn-Jerry's wife 
And he tried to kill my life 
Therefore I will kill you now 
I'm gonna tell you how 

[Chorus]
You're gonna bleed 
'Cause I have a knife 
You're gonna plead 
For your dirty life 
You're gonna cry 
and you're gonna run 
Juan's gonna shoot you with his lasergun 

[Verse 2]
But Doktor Kosmos Is brave and he say (oooh) 
Hey hey hey hey hey hey hey hey hey (heyheyhey) 
Don't touch mördarbruden Eva 
Om du vill leva 

Doktor Knark he smiles a smile 
And he say I don't like your style 
Doktor Kosmos I don't like you 
I'm gonna kill you to
Suggest correction
Give kudos to tab author, rate the tab!
1 2 3 4 5
comments
print report bad tab
guest
You may want to rate the tab now too:
select rating
Wanna post a correction for this tab? Suggest correction