Oops, an error
Loading. Please wait.

Jimi Tenor Och Kennet Johnsson Tab

1 view 1 this week
no commentswrite comment
1 2 3 4 5
3 more votes to show rating
add to favorites
launch autoscroll
font size
0
reset
how to read this tab
guitar tuner
Autoscroll
slow
fast
+/-
esc
set tempo
stop
Help us to improve Ultimate-Guitar.com Take our survey!
×
Author
[Intro]
e|----------------------------------------------------|
B|----------------------------------------------------|
G|------6~(6)/------4~(4)/------2~(2)/----------------|
D|-----2-----------2-----------2-----------2-----2----|
A|0h2h4-------0h2h4-------0h2h4-------0h2h4--2-4------|
E|-------------------------------------------------0~~|

[Verse]
jag...!       gick på konsert!
D-A-D-A- |E-  E-E- E- |D-A-D-A-|

       e|----------------|
       B|-----5----------|
       G|-------6--------|
       D|-4-6-----4------|
       A|-----------7----|
       E|-------------0--|

[Chorus]
e|----------------------------------------------------|
B|----------------------------------------------------|
G|------6~(6)/------4~(4)/------2~(2)/----------------|
D|-----2-----------2-----------2-----------2-----2----|
A|0h2h4-------0h2h4-------0h2h4-------0h2h4--2-4------|
E|-------------------------------------------------0~~|

[Verse]
jag...!       gick på konsert!
D-A-D-A- |E-  E-E- E- |D-A-D-A-|

       e|----------------|
       B|-----5----------|
       G|-------6--------|
       D|-4-6-----4------|
       A|-----------7----|
       E|-------------0--|

[Bridge]

       e|-----------|------------|----------|----------|
       B|-----------|------------|----------|----------|
       G|---7~~~----|------------|--5-4-----|(0)~~~~~~-|
       D|7h9-(9)7-5-|----12--14-0|---(5)----|----------|
       A|-----------|5/10--(12)--|----------|----------|
       E|-----------|------------|----------|----------|

[Interlude]
e|----------------------------------------------------|
B|----------------------------------------------------|
G|------6~(6)/------4~(4)/------2~(2)/----------------|
D|-----2-----------2-----------2-----------2-----2----|
A|0h2h4-------0h2h4-------0h2h4-------0h2h4--2-4------|
E|-------------------------------------------------0~~|

[Verse]
jag...!       gick på konsert!
D-A-D-A- |E-  E-E- E- |D-A-D-A-|

       e|----------------|
       B|-----5----------|
       G|-------6--------|
       D|-4-6-----4------|
       A|-----------7----|
       E|-------------0--|

[Chorus]
e|----------------------------------------------------|
B|----------------------------------------------------|
G|------6~(6)/------4~(4)/------2~(2)/----------------|
D|-----2-----------2-----------2-----------2-----2----|
A|0h2h4-------0h2h4-------0h2h4-------0h2h4--2-4------|
E|-------------------------------------------------0~~|

[Verse]
jag...!       gick på konsert!
D-A-D-A- |E-  E-E- E- |D-A-D-A-|

       e|----------------|
       B|-----5----------|
       G|-------6--------|
       D|-4-6-----4------|
       A|-----------7----|
       E|-------------0--|

[Bridge]

       e|-----------|------------|----------|----------|
       B|-----------|------------|----------|----------|
       G|---7~~~----|------------|--5-4-----|(0)~~~~~~-|
       D|7h9-(9)7-5-|----12--14-0|---(5)----|----------|
       A|-----------|5/10--(12)--|----------|----------|
       E|-----------|------------|----------|----------|

[Solo] (A5,A5-B5-C5,C5-B5-A5)

[Outro]
e|----------------------------------------------------|
B|----------------------------------------------------|
G|------6~(6)/------4~(4)/------2~(2)/----------------|
D|-----2-----------2-----------2-----------2-----2----|
A|0h2h4-------0h2h4-------0h2h4-------0h2h4--2-4------|
E|-------------------------------------------------0~~|


************************************

| (n)  Ghost note
| h    Hammer-on
| /    Slide up
| ~    Vibrato

************************************
Suggest correction
Give kudos to tab author, rate the tab!
1 2 3 4 5
comments
print report bad tab
guest
You may want to rate the tab now too:
select rating
Wanna post a correction for this tab? Suggest correction