Oops, an error
Loading. Please wait.

Rude As Jude tab

version 2
version 2

Whole song

by DOM
100 views 1 this week
no commentswrite comment
1 2 3 4 5
3 more votes to show rating
add to favorites
×
Save as Personal and add changes to this tab that will be seen only by you. Learn more ›
×
You can save this tab as Personal to edit and correct it or add notes. All changes will be seen only by you. Learn more »
launch autoscroll
font size
0
reset
how to read this tab
guitar tuner
edit
Autoscroll
slow
fast
+/-
esc
set tempo
stop
cool indie pop song off sun bronzed greek gods

Riff:
E|------------------------------------------
B|------------------------------------------
G|------------------------------------------
D|------------------------------------------
A|-----------7---------9------10--9--7------
E|--5--7--8-----8--10-----10------------10-- x2

E|-------------------------------------------
B|-------------------------------------------
G|-------------------------------------------
D|-------------------------------------------
A|-----------7---------9------14--12--10--9--
E|--5--7--8-----8--10-----10-----------------

E|-------------------------------
B|-------------------------------
G|-------------------------------
D|-------------------------------
A|-----------7---------9---------
E|--5--7--8-----8--10-----10--3~-

and here are the lyrics just in case you wanted em

-=verse=-

debut at noon
friends doing what they're supposed to
i only do what i have to
hey this is ok

rude as jude
i got an i don't really care attitude
i'm gonna live how i want to
hey this is ok
this is ok

-=chorus=-

i like living for today
don't wanna swim just wanna feel the waves break
feel the waves break

-=verse=-

booze and cruise
destroy unemployment rules
i only do what i have to
hey this is ok

rude as jude
i got an i don't really care attitude
i'm gonna live how i want to
hey this is ok
this is ok

-=chorus=-

i like living for today
don't wanna swim just wanna feel the waves break
feel the waves break

i like living for today
don't wanna swim just wanna feel the waves break
feel the

            
            
Suggest correction
Creating personal tab
Creating personal tab
You can edit any tab online and save it as your Personal.

You can edit, replace or remove any tab part or add personal notes – all changes will be seen only by you.

Personal tabs can be accessed anytime from any device, even offline.
Learn more »
Give kudos to tab author, rate the tab!
1 2 3 4 5
comments
print report bad tab
guest
You may want to rate the tab now too:
select rating
Wanna post a correction for this tab? Suggest correction