Oops, an error
Loading. Please wait.

Zion Mourns Bass Tab

680 views 1 this week
no commentswrite comment
1 2 3 4 5
please rate
add to favorites
launch autoscroll
font size
0
reset
guitar tuner
Autoscroll
slow
fast
+/-
esc
set tempo
stop
Help us to improve Ultimate-Guitar.com Take our survey!
×
Author
Difficulty
novice
Song: Zion Mourns
Artist: Dominic Balli
Tuning: EADG (Standard)
(~) let note ring
(x) mute note [cut short]


Intro Chorus – Acoustic Guitar Only


Intro:  “The road to Zion...”
G|-------------------------|
D|-------------------------|
A|-----------5-6x-6-5----88|
E|6x-6-5-3x-3--------6x-6--|


Verse 1: 	
G|----------------------|
D|----------------------|
A|----------6~--------88| 2x
E|6~---3~--------6~-----|


Chorus:	
G|-------------------------|
D|-------------------------|
A|-----------5-6x-6-5----8-|
E|6x-6-5-3x-3--------8x-8--|

G|-------------------------|
D|-------------------------|
A|-----------5-6x-6-5----88|
E|6x-6-5-3x-3--------8x-8--|


Tag:
G|-------------------------|
D|-------------------------|
A|-----------5-6x-6-5----88|
E|6x-6-5-3x-3--------6x-6--|


Verse 2: 	
G|----------------------|
D|----------------------|
A|----------6~--------88| 2x
E|6~---3~--------6~-----|


Chorus:	
G|-------------------------|
D|-------------------------|
A|-----------5-6x-6-5----8-|
E|6x-6-5-3x-3--------8x-8--|

G|-------------------------|
D|-------------------------|
A|-----------5-6x-6-5----88|
E|6x-6-5-3x-3--------8x-8--|


Tag: (Guitar Solo)
G|-------------------------|
D|-------------------------|
A|-----------5-6x-6-5----88| 2x
E|6x-6-5-3x-3--------6x-6--|


Verse 3: 	
G|-----------------------|
D|-----------------------|
A|----------6~----------8| 2x
E|6~---3~--------6~----6-|


Chorus: (2x)	
G|-------------------------|
D|-------------------------|
A|-----------5-6x-6-5----8-|
E|6x-6-5-3x-3--------8x-8--|

G|-------------------------|
D|-------------------------|
A|-----------5-6x-6-5----88|
E|6x-6-5-3x-3--------8x-8--|


End on 
G|----|
D|----|
A|----|
E|6~~~|




This song is one of the most catchy, yet easy to play reggae songs ever.
Dominic Balli, You've done it again!

Have fun you guys :)

/|\
Suggest correction
Give kudos to tab author, rate the tab!
1 2 3 4 5
comments
print report bad tab
guest
You may want to rate the tab now too:
select rating
Please do not post tabs as comments. Select "correction" instead!