Oops, an error
Loading. Please wait.

Shape Of My Heart tab

3,463 views 18 this week
1 commentread comment
1 2 3 4 5
x 4
add to favorites
×
Save as Personal and add changes to this tab that will be seen only by you. Learn more ›
×
You can save this tab as Personal to edit and correct it or add notes. All changes will be seen only by you. Learn more »
launch autoscroll
font size
0
reset
how to read this tab
guitar tuner
edit
Autoscroll
slow
fast
+/-
esc
set tempo
stop
Author
--------------------------------------------
Shape of My Heart - Sting and Dominic Miller
--------------------------------------------

The main riff is played throughout the song. There’s a key change towards the end, 
but that’s easy to work out as you just transpose the whole tab down a half step.


e|---------------|---------------|---------------|---------------|
B|---------------|---------------|---------------|---------------|
G|--14-------14--|--13-------13--|--11-------11--|--11----10-----|
D|--------11-----|--------11-----|--------9------|-----9-----9---|
A|---------------|---------------|---------------|---------------|
E|-----14--------|--12-12--------|--10-10--------|--9-----9------|


e|---------------|---------------|---------------|---------------|
B|---------------|---------------|---------------|---------------|
G|--14-------14--|--13-------13--|--11-------11--|--11----10-----|
D|--------12-----|--------11-----|--------9------|-----9-----9---|
A|---------------|---------------|---------------|---------------|
E|-----14--------|--12-12--------|--10-10--------|--9-----9------|


e|---------------|---------------|---------------|---------------|
B|---------------|--10-----------|-----5-----5---|--------6------|
G|--------11-----|--------11-----|-----2-h4--2---|---------------|
D|-----9-----9---|-----------9---|---------------|-----6---------|
A|---------------|---------------|---------------|--4------------|
E|--10-----------|---------------|--5------------|---------------|


e|--5------------|--2------------|--2------------|---------------|
B|--7-----5------|--2------------|--2------------|---------------|
G|--7--------7---|--4-----4--2---|--2------------|---------------|
D|--7------------|--4------------|--4------------|---------------|
A|--5------------|--2------------|--4------------|---------------|
E|--5------------|--4------------|--2------------|---------------|
Suggest correction
Creating personal tab
Creating personal tab
You can edit any tab online and save it as your Personal.

You can edit, replace or remove any tab part or add personal notes – all changes will be seen only by you.

Personal tabs can be accessed anytime from any device, even offline.
Learn more »
comments
print report bad tab
1 comment total.
0 reply
noguera95 10 Jul 13, 2017 12:41 AM

didn't like this contribution

guest
You may want to rate the tab now too:
select rating
Wanna post a correction for this tab? Suggest correction