Oops, an error
Loading. Please wait.

What Manner Of Love chords

52 views 1 this week
no commentswrite comment
1 2 3 4 5
3 more votes to show rating
add to favorites
×
Save as Personal and add changes to this tab that will be seen only by you. Learn more ›
×
You can save this tab as Personal to edit and correct it or add notes. All changes will be seen only by you. Learn more »
launch autoscroll
font size
0
reset
transpose
0
reset
simplify chords
display chords
guitar tuner
edit
Autoscroll
slow
fast
+/-
esc
set tempo
stop
Strumming
There is no strumming pattern for this song yet. and get +5 IQ
[Intro]

Fmaj7 Am Em G Fmaj7 Am Em G

d#|-----------------------------------------------------------------------------------------|
a#|---------8------------8----------8------------10--10--8----------------------------------|
f#|-----------10------------9--7h9--------------------------9--7----------------------------|
c#|----7h10---------7h10--------------9~~---------------------------------------------------|
g#|-----------------------------------------------------------------------------------------|
D#|-----------------------------------------------------------------------------------------|

d#|-----------------------------------------------------------12-12-------------------------|
a#|---------8------------8----------8--8/12-12-12-12-12-12-12-------12-12-------------------|
f#|-----------10------------9--7h9----------------------------------------12-12-------------|
c#|----7h10---------7h10--------------------------------------------------------14----------|
g#|-----------------------------------------------------------------------------------------|
D#|-----------------------------------------------------------------------------------------|


[Verse]

Fmaj7            Am                   Em                             G
You overflow my heart with Your love, Makes me feel like I could touch the stars
Fmaj7              Am              Em           G
You pull me in and hold me in Your arms
Fmaj7           Am                         Em             G
You overflow my cup with Your grace, with every drink I savor the taste
Fmaj7                Am                Em           G
You pull me in and lavish me with Your love


[Chorus]

Fmaj7           Am           Em         G                  Fmaj7
What manner of love is this, when your grace and my heart collide
     Am         Em      G    G7            
You bring me to life
Fmaj7           Am         Em              G                Fmaj7
What manner of love is this, where the heavens and earth align 
    Am          Em            G   G7
You bring me to life


[Verse]

Fmaj7            Am                         Em                 G
You overflow my heart with Your joy, when I see Your smile all fear is destroyed
Fmaj7             Am               Em            G
You brought me in and made me Your own
Fmaj7            Am                              Em                               G
You overflow my cup with your peace, through the midst of the storm the waves are under my feet
Fmaj7            Am                            Em           G
You brought me in through the sacrifice of Your Son


[Bridge]

C
Only You can make my heart come alive
C
Only You can make my heart come alive
F             Fm
Only You can make my heart come alive


***********************************
| /   Slide up
| h   Hummer-on
***********************************

            
            
Suggest correction
Creating personal tab
Creating personal tab
You can edit any tab online and save it as your Personal.

You can edit, replace or remove any tab part or add personal notes – all changes will be seen only by you.

Personal tabs can be accessed anytime from any device, even offline.
Learn more »
Give kudos to tab author, rate the tab!
1 2 3 4 5
comments
print report bad tab
guest
You may want to rate the tab now too:
select rating
Wanna post a correction for this tab? Suggest correction