Oops, an error
Loading. Please wait.

My Heart Your Hands Tab

version 2
version 2

Whole song

902 views 1 this week
no commentswrite comment
1 2 3 4 5
please rate
add to favorites
launch autoscroll
font size
0
reset
how to read this tab
guitar tuner
Tab Pro tools
  • play this tab
  • loop segment
  • change instrument
  • show fretboard
  • metronome
×
Best way to learn
"My Heart Your Hands"
Autoscroll
slow
fast
+/-
esc
set tempo
stop
Contributor
Difficulty
intermediate
-------------------------------------------------------------------------------
                             MY HEART, YOUR HANDS - 
-------------------------------------------------------------------------------
Tabbed by:
Email:

Tuning: eb Bb Gb Db Ab Db


main riff/chorus:
eb|-----------------------------------------------------------------|
Bb|-----------------------------------------------------------------|
Gb|-7---7---7---7---------------------------------5-5-5-5-5-5-5-5-5-|
Db|-7---7---7---7---3---3---3-3-3-3-5---5---5---5-5-5-5-5-5-5-5-5-5-|
Ab|-5---5---5---5---3---3---3-3-3-3-5---5---5---5-3-3-3-3-3-3-3-3-3-|
Db|-0---0---0---0---3---3---3-3-3-3-5---5---5---5-------------------|


pre-chorus:
eb|-----------------------------------------------------------------|
Bb|-----------------------------------------------------------------|
Gb|-----2-------2-------2-------2-------2-------2-------2-------2---|
Db|-0-3---3-0-3---3---3---3---3---3---3---3---3---3---3---3---3---3-|
Ab|-----------------3-------3-------2-------2-------1-------1-------|
Db|-----------------------------------------------------------------|

pre-chorus 2:
eb|---------------|
Bb|---------------|
Gb|-3-3---3-3-3---|
Db|-3-3---3-3-3---|
Ab|-1-1---1-1-1---|
Db|---------------|


bridge 1:
e|-----------------------------------------------------------------|
B|-----------------------------------------------------------------|
G|-----------------------------------------------------------------|
D|-----------------------------------------------5/7-------3-------|
A|-5-----------5---7-----------7/8-8-------------------------------|
E|-----------------------------------------------------------------|


riff 2:
e|-----------------------------------------------------------------|
B|-----------------------------------------------------------------|
G|-7---7---7---7-----------------------------------3-3-----3-3-----|
D|-7---7---7---7---3---3---3-3-3-3-5---5---5---5---3-3-----3-3-----|
A|-5---5---5---5---3---3---3-3-3-3-5---5---5---5---1-1-----1-1-----|
E|-0---0---0---0---3---3---3-3-3-3-5---5---5---5-------------------|


pre-chorus 3:
eb|---------------|
Bb|---------------|
Gb|-5-5---5-5-5---|
Db|-5-5---5-5-5---|
Ab|-3-3---3-3-3---|
Db|---------------|


bridge 2:
e|-----------------------------------------------------------------|
B|-----------------------------------------------------------------|
G|-7-7-7-7-7-7-7-7-----------------3-3-3-3-3-3-3-3-----------------|
D|-7-7-7-7-7-7-7-7-0-0-0-0-0-0-0-0-3-3-3-3-3-3-3-3-3-3-3-3-3-3-3-3-|
A|-5-5-5-5-5-5-5-5-0-0-0-0-0-0-0-0-1-1-1-1-1-1-1-1-3-3-3-3-3-3-3-3-|
E|-0-0-0-0-0-0-0-0-0-0-0-0-0-0-0-0-----------------3-3-3-3-3-3-3-3-|

e|-----------------------------------------------------------------|
B|-----------------------------------------------------------------|
G|-7-7-7-7-7-7-7-7-----------------3-3-3-3-3-3-3-3-5-5-5-5-5-5-5-5-|
D|-7-7-7-7-7-7-7-7-0-0-0-0-0-0-0-0-3-3-3-3-3-3-3-3-5-5-5-5-5-5-5-5-|
A|-5-5-5-5-5-5-5-5-0-0-0-0-0-0-0-0-1-1-1-1-1-1-1-1-3-3-3-3-3-3-3-3-|
E|-0-0-0-0-0-0-0-0-0-0-0-0-0-0-0-0---------------------------------|


riff 3:
e|-----------------------------------------------------------------|
B|-----------------------------------------------------------------|
G|-7---7---7---7-----------------------------------3-3-3-3-3-3-3-3-|
D|-7---7---7---7---3---3---3-3-3-3-5---5---5---5---3-3-3-3-3-3-3-3-|
A|-5---5---5---5---3---3---3-3-3-3-5---5---5---5---1-1-1-1-1-1-1-1-|
E|-0---0---0---0---3---3---3-3-3-3-5---5---5---5-------------------|


outro:
e|-------------------------------------------------------------------------|
B|-------------------------------------------------------------------------|
G|-7---7---7---7-----------------------------------------------------------|
D|-7---7---7---7---3---3---3-3-3-3-5---5---5---5---3----------------0------|
A|-5---5---5---5---3---3---3-3-3-3-5---5---5---5---1----------------0------|
E|-0---0---0---0---3---3---3-3-3-3-5---5---5---5-----------7br(8)---0------|


Order:
synth intro
main riff/chorus x4
verse (synth, bass, and drums only)
pre-chorus x2 
pre-chorus 2 x2
main riff/chorus x4
bridge 1 (guitars silent)
bridge 1 (with guitar)
verse (synth, bass, and drums only)
pre-chorus x2
pre-chorus 2 x2
main riff/chorus x3
riff 2 
synth bridge
pre-chorus x3
pre-chorus 3 x1
bridge 2 x2
main riff/chorus x3
riff 3 x4
outro



************************************

| /   slide up
| \   slide down
| h   hammer-on
| p   pull-off
| ~   vibrato
| +   harmonic
| x   Mute note
| b   Bend
| pb  Pre-bend
| br  Bend release
| pbr Pre-bend release
| brb Bend release bend

************************************
comments
We did not receive enough feedback on this tab! Please rate:
print report bad tab
1 2 3 4 5
I want to post or [tab]
guest
You may want to rate the tab now too:
select rating
Please do not post tabs as comments. Select "correction" instead!