Oops, an error
Loading. Please wait.

Everybody bass

1,126 views 24 this week
2 commentsread comments
1 2 3 4 5
x 3
add to favorites
×
Save as Personal and add changes to this tab that will be seen only by you. Learn more ›
×
You can save this tab as Personal to edit and correct it or add notes. All changes will be seen only by you. Learn more »
launch autoscroll
font size
0
reset
guitar tuner
edit
Autoscroll
slow
fast
+/-
esc
set tempo
stop
About this tab version
This is the way that i play it with my own band and it all fits well together.i watched a couple covers and they play the song a different version each too. I hope that it gives you the basic idea of it so that you can further it yourself. Was this info helpful? Yes No
[Intro x2]

G|---------------------------------------------------------------------------|
D|---------------------------------------------------------------------------|
A|---------------------------------------------------------------------------|
D|-5-5-5-3-5-5-5-8-10-8-7-5-5-1-1-5-3-5-5-5-8-10-8-7-5-5---------------------|

[Verse]

G|---------------------------------------------------------------------------|
D|-----------------------------------1----------------------------------1----|
A|-----------------7-----------------------------------7---------------------|
D|-5--5h7-5----5-7---1--1h3-1----1-3---5--5h7-5----5-7---1--1h3-1----1-3-----|

G|---------------------------------------------------------------------------|
D|---------------------------------------1-----------------------------------|
A|-----------------5-7-----------------1-------------------5-7---------------|
D|-5--5h7-5----5-7-----1--1h3-1----1-3-----5--5h7-5----5-7-------------------|

G|---------------------------------------------------------------------------|
D|---------------------------------------------------------------------------|
A|-----------------1---------------------------------------------------------|
D|-1--1h3-1----1-3-----------------------------------------------------------|

[Pre-Chorus]

G|---------------------------------------------------------------------------|
D|---------------------------------------------------------------------------|
A|---------------------------------------------------------------------------|
D|-5~~~~~~~~~~~~~~-1~~~~~~~~~~~~~~-5~~~~~~~~~~~~~~-1~~~~~~~~~~~~~~-----------|

[Intro x2]

G|---------------------------------------------------------------------------|
D|---------------------------------------------------------------------------|
A|---------------------------------------------------------------------------|
D|-5-5-5-3-5-5-5-8-10-8-7-5-5-1-1-5-3-5-5-5-8-10-8-7-5-5---------------------|

[Verse]

G|---------------------------------------------------------------------------|
D|---------------------------------------1-----------------------------------|
A|-----------------5-7-----------------1-------------------------------------|
D|-5--5h7-5----5-7-----1--1h3-1----1-3---------------------------------------|

[Middle eight bass comes back in at 2:22]

G|---------------------------------------------------------------------------|
D|---------------------------------------------------------------------------|
A|---------------------------------------------------------------------------|
D|-5-5-5-5-5-5-5-5-0-0-0-0-0-0-0-0-1-1-1-1-1-1-1-1-1-1-1-1-1-1-1-1-----------|

G|---------------------------------------------------------------------------|
D|---------------------------------------------------------------------------|
A|---------------------------------------------------------------------------|
D|-5-5-5-5-5-5-5-5-0-0-0-0-0-0-0-0-1-1-1-1-1-1-1-1-1-1-1-1/-13-13-13-13------|

[Intro x4]

G|---------------------------------------------------------------------------|
D|---------------------------------------------------------------------------|
A|---------------------------------------------------------------------------|
D|-5-5-5-3-5-5-5-8-10-8-7-5-5-1-1-5-3-5-5-5-8-10-8-7-5-5---------------------|

[outro]

G|---------------------------------------------------------------------------|
D|---------------------------------------------------------------------------|
A|---------------------------------------------------------------------------|
D|-8-8-8-8-8-8-8-8-8-8-8-8-8-8-8-8-10-10-10-10-10-10-10-10/------------------|

G|---------------------------------------------------------------------------|
D|---------------------------------------------------------------------------|
A|---------------------------------------------------------------------------|
D|-12-12-12-12-12-12-12-12--5-5-5--5-5-5-5-----------------------------------|

************************************

| h   Hammer-on
| p   Pull-off
| /   Slide up
| \   Slide down
| ~   Vibrato

************************************

            
            
Suggest correction
Creating personal tab
Creating personal tab
You can edit any tab online and save it as your Personal.

You can edit, replace or remove any tab part or add personal notes – all changes will be seen only by you.

Personal tabs can be accessed anytime from any device, even offline.
Learn more »
Give kudos to tab author, rate the tab!
1 2 3 4 5
comments
print report bad tab
2 comments total.
0 reply
J. Sheppard 45 Jan 20, 2017 05:17 AM

The songs mix makes it really hard to make out the bass in the verses, but this seems really close. I think anyone covering it (including me when my band plays it) has there own version of the verse, but yours is accurate. Top work!

guest
You may want to rate the tab now too:
select rating
Wanna post a correction for this tab? Suggest correction