Oops, an error
Loading. Please wait.

You Wanna Know tab

version 2
version 2

Whole song

1,702 views 6 this week
no commentswrite comment
1 2 3 4 5
1 last vote to show rating
add to favorites
×
Save as Personal and add changes to this tab that will be seen only by you. Learn more ›
×
You can save this tab as Personal to edit and correct it or add notes. All changes will be seen only by you. Learn more »
launch autoscroll
font size
0
reset
how to read this tab
guitar tuner
edit
Autoscroll
slow
fast
+/-
esc
set tempo
stop
-------------------------------------------------------------------------------
                         You Wanna Know - Don Broco
-------------------------------------------------------------------------------
Tabbed by: Rory H
E-mail: rdeh10@googlemail.com

Tuning: Drop C# (C#G#C#F#A#D#)

So I thought I'd tab this as it is a great track. This is done using the 2015 version from the Automatic
deluxe edition, but its really not that different from the original. I have used live performances to 
improve the accuracy, and in most parts is identical if not similar to those versions (in live versions
Simon [Guitar] is in Drop C tuning, but still plays as if it was in Drop C# so it sounds one semitone lower 
live than it is on the recording).

Hope you enjoy this - it is great fun to play, and let me know if you have any corrections or improvements!

INTRO:
(Overdriven)
D#|-----------------------------------------------------3--3-3--3--2--2--2---------------------|
A#|-----------------------------------------------------3--3-3--3--3--3--3---------------------|
F#|----------------------------------------11-11--------4--4-4--4--2--2--2--7--7-7--7----------| x2
C#|-14--14-14--14-14-14--14--14--14-14--14-14-14--------2--2-2--2--0--0--0--5--5-5--5--12-12---|
G#|-10--10-10--10-10-10--10--10--10-10--10-10-10------5-2--2-2--2--0--0--0--5--5-5--5--10-10---|
C#|-10--10-10--10-10-10--10--10--10-10--10-10-10-5h7----2--2-2--2--0--0--0--5--5-5--5---9--9---|

VERSE 1:
(Palm mute the majority, cleaner tone, and plenty of delay)
D#|--------------------------------------------------------------------------------|
A#|--------------------------------------------10---------8-----7------------10----|
F#|-------7--------4--------7-----4---------0----------0---------------7---7---(7)-| x2
C#|----5--------5--------5-----------5---------------------------------------------|
G#|-7--------7--------7--------5--------10---------10--------9------9--------------|
C#|--------------------------------------------------------------------------------|

D#|------------------------------------------------------------------|
A#|--------------------------------------------10---------8----------|
F#|-------7--------4--------7-----4---------0----------0-------------| 
C#|----5--------5--------5-----------5-------------------------------|
G#|-7--------7--------7--------5--------10---------10----------------|
C#|------------------------------------------------------------------|

CHORUS:
(Overdriven)
D#|-----------------------------------------------------3--3-3--3--2--2--2---------------------|
A#|-----------------------------------------------------3--3-3--3--3--3--3---------------------|
F#|----------------------------------------11-11--------4--4-4--4--2--2--2--7--7-7--7----------| x3
C#|-14--14-14--14-14-14--14--14--14-14--14-14-14--------2--2-2--2--0--0--0--5--5-5--5--12-12---|
G#|-10--10-10--10-10-10--10--10--10-10--10-10-10------5-2--2-2--2--0--0--0--5--5-5--5--10-10---|
C#|-10--10-10--10-10-10--10--10--10-10--10-10-10-5h7----2--2-2--2--0--0--0--5--5-5--5---9--9---|
VERSE 2:
(Same as verse 1 tone wise)
D#|--------------------------------------------------------------------------------|
A#|--------------------------------------------10---------8-----7------------10----|
F#|-------7--------4--------7-----4---------0----------0---------------7---7---(7)-|
C#|----5--------5--------5-----------5---------------------------------------------|
G#|-7--------7--------7--------5--------10---------10--------9------9--------------|
C#|--------------------------------------------------------------------------------|

D#|--------------------------------------------------------------------------------(14)--|
A#|--------------10p8-----------------10---------8-----7-----------10p8------------------|
F#|-------7-7/9-------9--9/11------0----------0---------------7---------9/11\9/11--------|
C#|----5---------------------------------------------------------------------------------|
G#|-7--------------------------10---------10--------9------9-----------------------------|
C#|--------------------------------------------------------------------------------------|

CHORUS:
(Overdriven)
D#|-----------------------------------------------------3--3-3--3--2--2--2---------------------|
A#|-----------------------------------------------------3--3-3--3--3--3--3---------------------|
F#|----------------------------------------11-11--------4--4-4--4--2--2--2--7--7-7--7----------| x3
C#|-14--14-14--14-14-14--14--14--14-14--14-14-14--------2--2-2--2--0--0--0--5--5-5--5--12-12---|
G#|-10--10-10--10-10-10--10--10--10-10--10-10-10------5-2--2-2--2--0--0--0--5--5-5--5--10-10---|
C#|-10--10-10--10-10-10--10--10--10-10--10-10-10-5h7----2--2-2--2--0--0--0--5--5-5--5---9--9---|

BRIDGE:
(Clean, delay)
D#|--------------------------------------------------------|
A#|--------8--8--888888888888-----------8--8--888888888888-|
F#|-0--------------------------------7--0--0--000000000000-| x2
C#|---5---------------------------5------------------------|
G#|-----5----------------------7---------------------------|
C#|--------------------------------------------------------|

D#|---------------------------------------------------------------|
A#|--------8--8--888888888888-----------8--8--8888810101010101010-|
F#|-0--------------------------------7--0--0--000000-0-0-0-0-0-0--| (They are 10's, not 1's and 0's)
C#|---5---------------------------5-------------------------------|
G#|-----5----------------------7----------------------------------|
C#|---------------------------------------------------------------|

CHORUS:
(Overdriven)
D#|--------------------------------------3--3-3--3--2--2--2---------------------|
A#|-[5--5-5--5-5-5----5--5-5--5-5-5]-----3--3-3--3--3--3--3---------------------|
F#|-[5--5-5--5-5-5----5--5-5--5-5-5]-----4--4-4--4--2--2--2--7--7-7--7----------| 
C#|-[5--5-5--5-5-5----5--5-5--5-5-5]-----2--2-2--2--0--0--0--5--5-5--5--12-12---|
G#|-[3--3-3--3-3-3----3--3-3--3-3-3]-----2--2-2--2--0--0--0--5--5-5--5--10-10---|
C#|--------------------------------------2--2-2--2--0--0--0--5--5-5--5---9--9---|

D#|-----------------------------------------------------3--3-3--3--2--2--2---------------------|
A#|-----------------------------------------------------3--3-3--3--3--3--3---------------------|
F#|----------------------------------------11-11--------4--4-4--4--2--2--2--7--7-7--7----------| x3
C#|-14--14-14--14-14-14--14--14--14-14--14-14-14--------2--2-2--2--0--0--0--5--5-5--5--12-12---|
G#|-10--10-10--10-10-10--10--10--10-10--10-10-10------5-2--2-2--2--0--0--0--5--5-5--5--10-10---|
C#|-10--10-10--10-10-10--10--10--10-10--10-10-10-5h7----2--2-2--2--0--0--0--5--5-5--5---9--9---|

OUTRO:
(Overdriven)
D#|--------------------------------------------|
A#|-12-12--10-10--12--12-12--12--10-10--12--12-| (It's something along these lines, but this isn't perfect)
F#|--x--x---x--x---x---x--x---x---x--x---x---x-|
C#|-10-10--10-10--10--10-10--10--10-10--10--10-|
G#|-10-10--10-10--10--10-10--10--10-10--10--10-|
C#|-10-10--10-10--10--10-10--10--10-10--10--10-|  

D#|----------------------------------------|
A#|-12-12--10-10--12--12-12--12--10-10--12-|
F#|--x--x---x--x---x---x--x---x---x--x---x-| 
C#|-10-10--10-10--10--10-10--10--10-10--10-|
G#|-10-10--10-10--10--10-10--10--10-10--10-|
C#|-10-10--10-10--10--10-10--10--10-10--10-|

************************************

| /   slide up
| \   slide down
| h   hammer-on
| p   pull-off
| ~   vibrato
| +   harmonic
| x   Mute note
| b   Bend
| pb  Pre-bend
| br  Bend release
| pbr Pre-bend release
| brb Bend release bend

************************************

            
            
Suggest correction
Creating personal tab
Creating personal tab
You can edit any tab online and save it as your Personal.

You can edit, replace or remove any tab part or add personal notes – all changes will be seen only by you.

Personal tabs can be accessed anytime from any device, even offline.
Learn more »
Give kudos to tab author, rate the tab!
1 2 3 4 5
comments
print report bad tab
guest
You may want to rate the tab now too:
select rating
Wanna post a correction for this tab? Suggest correction