Oops, an error
Loading. Please wait.

June Is Finally Here tab

343 views 6 this week
no commentswrite comment
1 2 3 4 5
3 more votes to show rating
add to favorites
×
Save as Personal and add changes to this tab that will be seen only by you. Learn more ›
×
You can save this tab as Personal to edit and correct it or add notes. All changes will be seen only by you. Learn more »
launch autoscroll
font size
0
reset
how to read this tab
guitar tuner
edit
Autoscroll
slow
fast
+/-
esc
set tempo
stop
Author
Difficulty
June Is Finally Here
by Don Caballero
tabbed by JA
re-submitted by Connor

A fantastic song that was lacking a tab, after searching the internet I found one on an old geocities page.
All credit goes to JA for tabbing this amazing song.


Guitar 1 
"A" (beginning, main riff)
e-0---0-------0-
b-4/5-5/9\(7)-7-
g---------------
d---------------
a---------------
E---------------


Guitar 2
e--------------- ----------------------------------
b--------------- -------------------------------17-
g--------------- ----------------------------------
d------14-14---- ------14------14------14-16/18----
a--------------- ----------------------------------
E-14/16--------- -14/16---14/16---14/16------------
  You'll hear parts with some vague echo/delay


Guitar 2, distorted
e-0---0---0-----
b-7---9---7-----
g---------------
d---------------
a---------------
E---------------
  This is played 2x after main riff starts dragging


Guitar 1
e-0-------------
b---4h5-5-4-2-0-
g---------------
d---------------
a---------------
E---------------
  Played 2x at the end of main riff, before part B


"B"

Guitar 1
e-0-------0-----
b-10p0----0h2---
g---------------
d---------------
a---------------
E---------------


Guitar 2
e-12--12----12--
b---------------
g---------------
d---------------
a---------------
E---------------

"C" (mellow arpeggio part)

Guitar 1
e-------------------------------------
b-------19-------19-------17----------
g---16-------16------16---------18-16-
d-18--18---18--18--18---18---18-------
a-------------------------------------
E-------------------------------------
  This melody eventualy melts into improv, just experiment and you should be good.


Guitar 2
e-21-                -0-
b-19-                -0-
g-16-                -4-
d-18-                ---
a----                ---
E----                ---
  Improv with bends   Bangs on this chord near climax



"D" (The Climax)

Guitar 1
e-14-14-16-16-14-14-12-12- -14-14-14/12-
b------------------------- -------------
g------------------------- -------------
d------------------------- -------------
a------------------------- -------------
E------------------------- -------------

Guitar 2
e-16-16-14-14-16-16-12-12-
b-------------------------
g-------------------------
d-------------------------
a-------------------------
E-------------------------



"B" (return to B riffs plus this bit)

Guitar 2
e-12p0--12p0--12p0----12p0--12p0--12p0--12--12p11---12---------
b-------------------------------------------------14-----14p12-
g--------------------------------------------------------------
d--------------------------------------------------------------
a--------------------------------------------------------------
E--------------------------------------------------------------
  Almost funky pull offs, then the little melody flourish
  Corrections etc, please let me know.

            
            
Suggest correction
Creating personal tab
Creating personal tab
You can edit any tab online and save it as your Personal.

You can edit, replace or remove any tab part or add personal notes – all changes will be seen only by you.

Personal tabs can be accessed anytime from any device, even offline.
Learn more »
Give kudos to tab author, rate the tab!
1 2 3 4 5
comments
print report bad tab
guest
You may want to rate the tab now too:
select rating
Wanna post a correction for this tab? Suggest correction