Oops, an error
Loading. Please wait.

Palm Trees In The Fecking Bahamas tab

version 2
version 2

Whole song

Interactive

37 views 3 this week
no commentswrite comment
1 2 3 4 5
3 more votes to show rating
add to favorites
×
Save as Personal and add changes to this tab that will be seen only by you. Learn more ›
×
You can save this tab as Personal to edit and correct it or add notes. All changes will be seen only by you. Learn more »
launch autoscroll
font size
0
reset
how to read this tab
guitar tuner
edit
Autoscroll
slow
fast
+/-
esc
set tempo
stop
Title: Palm Trees In The Fecking Bahamas
Artist: Don Caballero
Album: World Class Listening Problem
Tabber: Original by Yves Aguayo, modifications by Liam Riggs
Tempo = 139
Jeff Ellsworth & Gene Doyle
 

This was all tabbed out in Guitar Pro after hours of Left/Right channel isolation and slowing the track way 
down, using the original GP file submitted by Yves as a base for modification.

Guitar 1 (Right channel)
                                                        
e|----------0----------------|--------0------------|||
B|----9--0--------10---------|--9--0-----0--10-----|||
G|o9--------------7-----9----|--------------7-----o|||
D|o--------------------------|--------------------o|||
A|---------------------------|---------------------|||
E|---------------------------|---------------------|||

                                                                                
e|----------0----------------|--------0------------|||----------0----------------|
B|----9--0--------10---------|--9--0-----0--10-----|||----9--0--------10---------|
G|o9--------------7-----9----|--------------7-----o|||o9--------------7-----9----|
D|o--------------------------|--------------------o|||o--------------------------|
A|---------------------------|---------------------|||---------------------------|
E|---------------------------|---------------------|||---------------------------|

                                                                           
e|--------0------------|||----------0----------------|--------0------------||
B|--9--0-----0--10-----|||----9--0--------10---------|--9--0-----0--10-----||
G|--------------7-----o|||o9--------------7-----9----|--------------7-----o||
D|--------------------o|||o--------------------------|--------------------o||
A|---------------------|||---------------------------|---------------------||
E|---------------------|||---------------------------|---------------------||

                                                          
e|--------9-------------------|--------7-------------------|
B|----------------------------|----------------------------|
G|--------------9~------------|--------------7~------------|
D|--5s-7----------------------|--5s-7----------------------|
A|----------------------------|----------------------------|
E|----------------------------|----------------------------|

                                                                           
e|--------5L----5-----5L------|--5--5--5--5----|--------9-------------------|
B|----------------------------|----------------|----------------------------|
G|----------------------------|----------------|--------------9~------------|
D|--5s-7----------------------|-----7-----7----|--5s-7----------------------|
A|----------------------------|----------------|----------------------------|
E|----------------------------|----------------|----------------------------|

                                                                           
e|--------7-------------------|--------5L----5-----5L------|--5--5--5--5----|
B|----------------------------|----------------------------|----------------|
G|--------------7~------------|----------------------------|----------------|
D|--5s-7----------------------|--5s-7----------------------|-----7-----7----|
A|----------------------------|----------------------------|----------------|
E|----------------------------|----------------------------|----------------|

                                                          
e|----------------------------|----------------------------|
B|----------------------------|----------------------------|
G|--------9--------9----------|--------9--------9----------|
D|--6h-7-----6h-7-----6h-7----|--6h-7-----6h-7-----6h-7----|
A|----------------------------|----------------------------|
E|----------------------------|----------------------------|

                                                          
e|----------------------------|----------------------------|
B|----------------------------|----------------------------|
G|--------9--------9----------|--------9--------9----------|
D|--6h-7-----6h-7-----6h-7----|--6h-7-----6h-7-----6h-7----|
A|----------------------------|----------------------------|
E|----------------------------|----------------------------|

                                                          
e|----------------------------|----------------------------|
B|----------------------------|----------------------------|
G|--------9--------9----------|--------9--------9----------|
D|--6h-7-----6h-7-----6h-7----|--6h-7-----6h-7-----6h-7----|
A|----------------------------|----------------------------|
E|----------------------------|----------------------------|

                                                          
e|----------------------------|----------------------------|
B|----------------------------|----------------------------|
G|--------9--------9----------|--------9--------9----------|
D|--6h-7-----6h-7-----6h-7----|--6h-7-----6h-7-----6h-7----|
A|----------------------------|----------------------------|
E|----------------------------|----------------------------|

                                                          
e|----------------------------|----------------------------|
B|----------------------------|----------------------------|
G|--------9--------9----------|--------9--------9----------|
D|--6h-7-----6h-7-----6h-7----|--6h-7-----6h-7-----6h-7----|
A|----------------------------|----------------------------|
E|----------------------------|----------------------------|

                                                          
e|----------------------------|----------------------------|
B|----------------------------|----------------------------|
G|--------9--------9----------|--------9--------9----------|
D|--6h-7-----6h-7-----6h-7----|--6h-7-----6h-7-----6h-7----|
A|----------------------------|----------------------------|
E|----------------------------|----------------------------|

                                                          
e|----------------------------|----------------------------|
B|----------------------------|----------------------------|
G|--------9--------9----------|--------9--------9----------|
D|--6h-7-----6h-7-----6h-7----|--6h-7-----6h-7-----6h-7----|
A|----------------------------|----------------------------|
E|----------------------------|----------------------------|

                                                          
e|----------------------------|----------------------------|
B|----------------------------|----------------------------|
G|--------9--------9----------|--------9--------9----------|
D|--6h-7-----6h-7-----6h-7----|--6h-7-----6h-7-----6h-7----|
A|----------------------------|----------------------------|
E|----------------------------|----------------------------|

                                                          
e|----------------------------|----------------------------|
B|----------------------------|----------------------------|
G|--------9--------9----------|--9--------9--------9-------|
D|--6h-7-----6h-7-----6h-7----|-----6h-7-----6h-7-----6h---|
A|----------------------------|----------------------------|
E|----------------------------|----------------------------|

                                                          
e|----------------------------|----------------------------|
B|----------------------------|----------------------------|
G|-----9--------9--------9----|--------9--------9----------|
D|--7-----6h-7-----6h-7-------|--6h-7-----6h-7-----6h-7----|
A|----------------------------|----------------------------|
E|----------------------------|----------------------------|

                                                          
e|----------------------------|----------------------------|
B|----------------------------|----------------------------|
G|--9--------9--------9-------|-----9--------9--------9----|
D|-----6h-7-----6h-7-----6h---|--7-----6h-7-----6h-7-------|
A|----------------------------|----------------------------|
E|----------------------------|----------------------------|

                                                           
e|----------------------------|----------------------------||
B|----------------------------|----------------------------||
G|--------9--------9----------|--9--------9--------9-------||
D|--6h-7-----6h-7-----6h-7----|-----6h-7-----6h-7----------||
A|----------------------------|----------------------------||
E|----------------------------|----------------------------||

                                                    
e|---------------------------------------------------|
B|-10----------10----------10----------10----x--x----|
G|o--------------------------------------------------|
D|o7-----------7-----------7-----------7-----x--x----|
A|---------------------------------------------------|
E|---------------------------------------------------|

                                                     
e|----------------------------------------------------|
B|--10----------10----------10----------10----x--x----|
G|----------------------------------------------------|
D|--7-----------7-----------7-----------7-----x--x----|
A|----------------------------------------------------|
E|----------------------------------------------------|

                                                     
e|----------------------------------------------------|
B|--10----------10----------10----------10----x--x----|
G|----------------------------------------------------|
D|--7-----------7-----------7-----------7-----x--x----|
A|----------------------------------------------------|
E|----------------------------------------------------|

                                                      
e|---------------------------------------------------|||
B|--10----------10----------10----------10----x--x---|||
G|--------------------------------------------------o|||
D|--7-----------7-----------7-----------7-----x--x--o|||
A|---------------------------------------------------|||
E|---------------------------------------------------|||

                                                    
e|---------------------------------------------------|
B|-10----------10----------10----------10----x--x----|
G|o--------------------------------------------------|
D|o7-----------7-----------7-----------7-----x--x----|
A|---------------------------------------------------|
E|---------------------------------------------------|

                                                     
e|----------------------------------------------------|
B|--10----------10----------10----------10----x--x----|
G|----------------------------------------------------|
D|--7-----------7-----------7-----------7-----x--x----|
A|----------------------------------------------------|
E|----------------------------------------------------|

                                                     
e|----------------------------------------------------|
B|--10----------10----------10----------10----x--x----|
G|----------------------------------------------------|
D|--7-----------7-----------7-----------7-----x--x----|
A|----------------------------------------------------|
E|----------------------------------------------------|

                                                      
e|---------------------------------------------------|||
B|--10----------10----------10----------10----x--x---|||
G|--------------------------------------------------o|||
D|--7-----------7-----------7-----------7-----x--x--o|||
A|---------------------------------------------------|||
E|---------------------------------------------------|||

                                                         
e|----------0--------12-0----|--------0-------------------|
B|----9-----------9----------|-----9-----9-----10---------|
G|o9-----------9-------------|--9--------------7----------|
D|o--------------------------|----------------------------|
A|---------------------------|----------------------------|
E|---------------------------|----------------------------|

                                                           
e|-----------0--------12-0----|--------0------------------|||
B|-----9-----------9----------|-----9-----9-----10--------|||
G|--9-----------9-------------|--9--------------7--------o|||
D|----------------------------|--------------------------o|||
A|----------------------------|---------------------------|||
E|----------------------------|---------------------------|||

                                                    
e|---------------------------------------------------|
B|-9--9--9--9--9--9--9--9--9--9--9--9--9--9--9--9----|
G|o9--9--9--9--9--9--9--9--9--9--9--9--9--9--9--9----|
D|o11-11-11-11-11-11-11-11-11-11-11-11-11-11-11-11---|
A|---------------------------------------------------|
E|---------------------------------------------------|

                                                      
e|---------------------------------------------------|||
B|--9--9--9--9--9--9--9--9--9--9--9--9--9--9--9--9---|||
G|--9--9--9--9--9--9--9--9--9--9--9--9--9--9--9--9--o|||
D|--11-11-11-11-11-11-11-11-11-11-11-11-11-11-11-11-o|||
A|---------------------------------------------------|||
E|---------------------------------------------------|||

                                                    
e|---------------------------------------------------|
B|-9--9--9--9--9--9--9--9--9--9--9--9--9--9--9--9----|
G|o9--9--9--9--9--9--9--9--9--9--9--9--9--9--9--9----|
D|o11-11-11-11-11-11-11-11-11-11-11-11-11-11-11-11---|
A|---------------------------------------------------|
E|---------------------------------------------------|

                                                     
e|---------------------------------------------------||
B|--9--9--9--9--9--9--9--9--9--9--9--9--9--9--9--9---||
G|--9--9--9--9--9--9--9--9--9--9--9--9--9--9--9--9--o||
D|--11-11-11-11-11-11-11-11-11-11-11-11-11-11-11-11-o||
A|---------------------------------------------------||
E|---------------------------------------------------||

                                                     
e|----------------------------------------------------|
B|--12----------12----------12----------12----x--x----|
G|----------------------------------------------------|
D|--9-----------9-----------9-----------9-----x--x----|
A|----------------------------------------------------|
E|----------------------------------------------------|

                                                     
e|----------------------------------------------------|
B|--12----------12----------12----------12----x--x----|
G|----------------------------------------------------|
D|--9-----------9-----------9-----------9-----x--x----|
A|----------------------------------------------------|
E|----------------------------------------------------|

                                                     
e|----------------------------------------------------|
B|--12----------12----------12----------12----x--x----|
G|----------------------------------------------------|
D|--9-----------9-----------9-----------9-----x--x----|
A|----------------------------------------------------|
E|----------------------------------------------------|

                                                     
e|----------------------------------------------------|
B|--12----------12----------12----------12----x--x----|
G|----------------------------------------------------|
D|--9-----------9-----------9-----------9-----x--x----|
A|----------------------------------------------------|
E|----------------------------------------------------|

                                                     
e|----------------------------------------------------|
B|--12----------12----------12----------12----x--x----|
G|----------------------------------------------------|
D|--9-----------9-----------9-----------9-----x--x----|
A|----------------------------------------------------|
E|----------------------------------------------------|

                                                     
e|----------------------------------------------------|
B|--12----------12----------12----------12----x--x----|
G|----------------------------------------------------|
D|--9-----------9-----------9-----------9-----x--x----|
A|----------------------------------------------------|
E|----------------------------------------------------|

                                                     
e|----------------------------------------------------|
B|--12----------12----------12----------12----x--x----|
G|----------------------------------------------------|
D|--9-----------9-----------9-----------9-----x--x----|
A|----------------------------------------------------|
E|----------------------------------------------------|

                                                      
e|----------------------------------------------------||
B|--12----------12----------12----------12----x--x----||
G|----------------------------------------------------||
D|--9-----------9-----------9-----------9-----x--x----||
A|----------------------------------------------------||
E|----------------------------------------------------||

                                                         
e|----------0----------------|-----0----------------------|
B|-------0-------------------|--0-------------------------|
G|o---15----------15----15---|-----------15----16---------|
D|o16----------16----16------|--------16-------13---------|
A|---------------------------|----------------------------|
E|---------------------------|----------------------------|

                                                          
e|-----------0----------------|-----0---------------------||
B|--------0-------------------|--0------------------------||
G|-----15----------15----15---|-----------15----16-------o||
D|--16----------16----16------|--------16-------13-------o||
A|----------------------------|---------------------------||
E|----------------------------|---------------------------||

                                                          
e|--0-----------0-------------|--0-------------------------|
B|--0-----------0-------------|--0-------------------------|
G|--15-15-15-15-15-15-15-15---|--15-15-15-15-15-15-15-15---|
D|--16-16-16-16-16-16-16-16---|--16-16-16-16-16-16-16-16---|
A|----------------------------|----------------------------|
E|----------------------------|----------------------------|

                                                          
e|--0-----------0-------------|--0-----------0-------------|
B|--0-----------0-------------|--0-----------0-------------|
G|--15-15-15-15-15-15-15-15---|--15-15-15-15-15-15-15-15---|
D|--16-16-16-16-16-16-16-16---|--16-16-16-16-16-16-16-16---|
A|----------------------------|----------------------------|
E|----------------------------|----------------------------|

                                                          
e|--0-----------0-------------|--0-----------0-------------|
B|--0-----------0-------------|--0-----------0-------------|
G|--15-15-15-15-15-15-15-15---|--15-15-15-15-15-15-15-15---|
D|--16-16-16-16-16-16-16-16---|--16-16-16-16-16-16-16-16---|
A|----------------------------|----------------------------|
E|----------------------------|----------------------------|

                                                                  
e|--0-----------0-------------|--0-------------------------|-------|
B|--0-----------0-------------|--0-------------------------|--0----|
G|--15-15-15-15-15-15-15-15---|--15-15-15-15-15-15-15-15---|--15---|
D|--16-16-16-16-16-16-16-16---|--16-16-16-16-16-16-16-16---|--16---|
A|----------------------------|----------------------------|-------|
E|----------------------------|----------------------------|-------|

                                                          
e|----------------------------|--------------0-------------|
B|-----0----------------------|-----------0-----0----------|
G|--------15------------------|--------15----------15------|
D|--16-------16----14---------|-----16----------------16---|
A|----------------------------|----------------------------|
E|----------------------------|----------------------------|

                                                          
e|--------0-------------------|-----------0----------------|
B|-----0----------------------|--------0-----0-------------|
G|--15-------15---------------|-----15----------15----15---|
D|-----------------14---------|--16----------------16------|
A|----------------------------|----------------------------|
E|----------------------------|----------------------------|

                                                          
e|-----0----------------------|--------------0-------------|
B|--0-----0-------------------|-----------0-----0----------|
G|-----------15---------------|--------15----------15------|
D|-----------------14---------|-----16----------------16---|
A|----------------------------|----------------------------|
E|----------------------------|----------------------------|

                                         >
e|-----------0----------------|--0L---|--0----||
B|--------0-----0-------------|-------|-------||
G|-----15----------15----15---|--15L--|--15---||
D|--16----------------16------|--16L--|--16---||
A|----------------------------|-------|-------||
E|----------------------------|-------|-------||


----------------------------------------------------------------

Guitar 2 (Left channel)

e|---------------|------------|||-------12-------10---------|
B|---------------|------------|||-------12-------10----12~--|
G|o--------------|-----------o|||o---------------------12L--|
D|o--------------|-----------o|||o--------------------------|
A|---------------|------------|||---------------------------|
E|---------------|------------|||---------------------------|

                                                                            
e|---------------------|||---------------------------|---------------------|||
B|--------8-----7------|||---------------------------|---------------------|||
G|--12~---9-----7-----o|||o---------12----12----11---|-----------------7--o|||
D|--------------------o|||o---9--------14----12------|--12-11----11-9-----o|||
A|---------------------|||-11------------------------|--------12-----------|||
E|---------------------|||---------------------------|---------------------|||

                                                                    
e|---------------------------|---------------------||--0--------0----|
B|----12-0-------------------|--12-0-----12--------||--5--------5----|
G|o12-------12----9~----12---|--------12----9~----o||----------------|
D|o---------------11---------|--------------11----o||-----7s-5-------|
A|---------------------------|---------------------||----------------|
E|---------------------------|---------------------||----------------|

                                                                    
e|--------0-------|-----0----------|--0-------------|--0--------0----|
B|--------5-------|-----5----------|--5-------------|--5--------5----|
G|----------------|----------------|----------------|----------------|
D|--7s-5-----7s---|--5-----7s-5----|-----7s-5-------|-----7s-5-------|
A|----------------|----------------|-----------7----|----------------|
E|----------------|----------------|----------------|----------------|

                                                                    
e|--------0-------|-----0----------|--0-------------|----------------|
B|--------5-------|-----5----------|--5-------------|-----3----------|
G|----------------|----------------|----------------|-----2----------|
D|--7s-5-----7s---|--5-----7s-5----|-----7s-5-------|-----4----------|
A|----------------|----------------|-----------7----|--2-------------|
E|----------------|----------------|----------------|----------------|

                                                      
e|----------------|-------|----------------------------|
B|-----5----------|--2----|----------------------------|
G|-----4----------|--2----|----------------------------|
D|-----6----------|--2----|----------------------------|
A|--4-------------|--4----|----------------------------|
E|----------------|--2----|--2--2-----2-----2----------|

                                                                  
e|----------------------------|----------------------------|-------|
B|--------3-------------------|--------------5-------------|--2----|
G|--------2-------------------|--------------4-------------|--2----|
D|--------4-------------------|-----6~-------6-------------|--2----|
A|--2-----------2--5-----4L---|--4--------4----------------|--4----|
E|----------------------------|----------------------------|--2----|

                                                                       
e|----------------------------|----------------|----------------|-------|
B|----------------------------|-----3----------|-----5----------|--2----|
G|--2M-------2M-------2M------|-----2----------|-----4----------|--2----|
D|--2M-------2M-------2M------|-----4----------|-----6----------|--2----|
A|-----4M-4M----4M-4M---------|--2-------------|--4-------------|--4----|
E|-----2M-2M----2M-2M---------|----------------|----------------|--2----|

                                                          
e|----------------------------|----------------------------|
B|----------------------------|--------3-------------------|
G|----------------------------|--------2-------------------|
D|----------------------------|--------4-------------------|
A|----------------------------|--2-----------2--5-----4L---|
E|--2--2-----2-----2----------|----------------------------|

                                                                  
e|----------------------------|-------|----------------------------|
B|--------------5-------------|--2----|----------------------------|
G|--------------4-------------|--2----|--2M-------2M-------2M------|
D|-----6~-------6-------------|--2----|--2M-------2M-------2M------|
A|--4--------4----------------|--4----|-----4M-4M----4M-4M---------|
E|----------------------------|--2----|-----2M-2M----2M-2M---------|

                                                          
e|----------------------------|----------------------------|
B|----------------------------|----------------------------|
G|----------------------------|----------------------------|
D|--2--------2--------2-------|-----2--------2--------2----|
A|--0--4M-2M-0--4M-2M-0--4M---|--2M-0--4M-2M-0--4M-2M-0----|
E|----------------------------|----------------------------|

                                                          
e|----------------------------|----------------------------|
B|----------------------------|----------------------------|
G|----------------------------|----------------------------|
D|--------2--------2----------|--2--------2--------2-------|
A|--4M-2M-0--4M-2M-0--4M-2M---|--0--4M-2M-0--4M-2M-0--4M---|
E|----------------------------|----------------------------|

                                                          
e|----------------------------|----------------------------|
B|----------------------------|----------------------------|
G|----------------------------|----------------------------|
D|-----2--------2--------2----|--------2--------2----------|
A|--2M-0--4M-2M-0--4M-2M-0----|--4M-2M-0--4M-2M-0--4M-2M---|
E|----------------------------|----------------------------|

                                                           
e|----------------------------|----------------------------||
B|----------------------------|----------------------------||
G|----------------------------|----------------------------||
D|--2--------2--------2-------|-----2--------2-------------||
A|--0--4M-2M-0--4M-2M-0--4M---|--2M-0--4M-2M-0--4M-2-------||
E|----------------------------|----------------------------||

                                                         
e|---------------------------|----------------------------|
B|---------------------------|----------------------------|
G|o--------------------------|----------------------------|
D|o11-11----9-----7~---------|--7--7-----6-----7--7-------|
A|---------------------------|----------------------------|
E|---------------------------|----------------------------|

                                                     
e|----------------------------------------------------|
B|----------------------------------------------------|
G|----------------------------------------------------|
D|--11----11----------9-----------7-----------4s-6s---|
A|----------------------------------------------------|
E|----------------------------------------------------|

                                                          
e|---------------------------|||---------------------------|
B|---------------------------|||---------------------------|
G|--------------------------o|||o--------------------------|
D|--7--9.-9.-6-----7~-------o|||o11-11----9-----7~---------|
A|---------------------------|||---------------------------|
E|---------------------------|||---------------------------|

                             
e|----------------------------|
B|----------------------------|
G|----------------------------|
D|--7--7-----6-----7--7-------|
A|----------------------------|
E|----------------------------|

                                                     
e|----------------------------------------------------|
B|----------------------------------------------------|
G|----------------------------------------------------|
D|--11----11----------9-----------7-----------4s-6s---|
A|----------------------------------------------------|
E|----------------------------------------------------|

                                                          
e|---------------------------|||-------------------12------|
B|---------------------------|||----12----12----12---------|
G|--------------------------o|||o14----14----14-------14---|
D|--7--9.-9.-6-----7~-------o|||o--------------------------|
A|---------------------------|||---------------------------|
E|---------------------------|||---------------------------|

                                                          
e|----------------------------|--------------------12------|
B|----------------------------|-----12----12----12---------|
G|----------------------------|--14----14----14-------14---|
D|-----14----12----11~--------|----------------------------|
A|----------------------------|----------------------------|
E|----------------------------|----------------------------|

                              
e|---------------------------|||
B|---------------------------|||
G|--------------------------o|||
D|-----14----12----11~------o|||
A|---------------------------|||
E|---------------------------|||

                                                    
e|---------------------------------------------------|
B|---------------------------------------------------|
G|o--------------------------------------------------|
D|o6h-7h-6-----6-----------6h-7h-6-----6-------------|
A|----------7-----------------------7----------------|
E|---------------------------------------------------|

                                                      
e|---------------------------------------------------|||
B|---------------------------------------------------|||
G|--------------------------6h-7h-6-----6-----------o|||
D|--6h-7h-6-----6--------------------7--------------o|||
A|-----------7---------------------------------------|||
E|---------------------------------------------------|||

                                                    
e|---------------------------------------------------|
B|---------------------------------------------------|
G|o------------------------6h-7h-6-----6-------------|
D|o6h-7h-6-----6--------------------7----------------|
A|----------7----------------------------------------|
E|---------------------------------------------------|

                                                     
e|---------------------------------------------------||
B|---------------------------------------------------||
G|--------------------------6h-7h-6-----6-----------o||
D|--6h-7h-6-----6--------------------7--------------o||
A|-----------7---------------------------------------||
E|---------------------------------------------------||

                                                          
e|----------------------------|----------------------------|
B|----------------------------|----------------------------|
G|----------------------------|----------------------------|
D|--13-13----11----9~---------|--9--9-----8-----9--9-------|
A|----------------------------|----------------------------|
E|----------------------------|----------------------------|

                                                     
e|----------------------------------------------------|
B|----------------------------------------------------|
G|----------------------------------------------------|
D|--13----13----------11----------9-----------6s-8s---|
A|----------------------------------------------------|
E|----------------------------------------------------|

                                                          
e|----------------------------|----------------------------|
B|----------------------------|----------------------------|
G|----------------------------|----------------------------|
D|--9--11.11.8-----9~---------|--13-13----11----9~---------|
A|----------------------------|----------------------------|
E|----------------------------|----------------------------|

                                                          
e|----------------------------|----------------------------|
B|----------------------------|----------------------------|
G|----------------------------|----------------------------|
D|--9--9-----8-----9--9-------|--13-13-13-11-11-11-9--9----|
A|----------------------------|----------------------------|
E|----------------------------|----------------------------|

                                                                                
--------------------------------------------------------------------------------
--------------------------------------------------------------------------------
--------------------------------------------------------------------------------
--9-----------6s-9-----------11----------11----------8-----------8-----------9--
--------------------------------------------------------------------------------
--------------------------------------------------------------------------------

                                                     
e|-----------------------||-------------------14------|
B|-----------------------||----14----14----14---------|
G|-----------------------||o16----16----16-------16---|
D|-----------------------||o--------------------------|
A|-----------------------||---------------------------|
E|-----------------------||---------------------------|

                                                          
e|----------------------------|--------------------14------|
B|----------------------------|-----14----14----14---------|
G|----------------------------|--16----16----16-------16---|
D|-----16----14----13~--------|----------------------------|
A|----------------------------|----------------------------|
E|----------------------------|----------------------------|

                             
e|---------------------------||
B|---------------------------||
G|--------------------------o||
D|-----16----14----13~------o||
A|---------------------------||
E|---------------------------||

                                                     
e|----------------------------------------------------|
B|----------------------------------------------------|
G|----------------------------------------------------|
D|--8h-9h-8-----8-----------8h-9h-8-----8-------------|
A|-----------9-----------------------9----------------|
E|----------------------------------------------------|

                                                     
e|----------------------------------------------------|
B|----------------------------------------------------|
G|--------------------------8h-9h-8-----8-------------|
D|--8h-9h-8-----8--------------------9----------------|
A|-----------9----------------------------------------|
E|----------------------------------------------------|

                                                     
e|----------------------------------------------------|
B|----------------------------------------------------|
G|----------------------------------------------------|
D|--8h-9h-8-----8-----------8h-9h-8-----8-------------|
A|-----------9-----------------------9----------------|
E|----------------------------------------------------|

                                                     
e|----------------------------------------------------|
B|----------------------------------------------------|
G|--8h-9h-8-----8-----------8h-9h-8-----8-------------|
D|-----------9-----------------------9----------------|
A|----------------------------------------------------|
E|----------------------------------------------------|

                                                     
e|----------------------------------------------------|
B|----------------------------------------------------|
G|--9h-11h9h-8h-9-----------8h-9h-8-----8-------------|
D|-----------------------------------9----------------|
A|----------------------------------------------------|
E|----------------------------------------------------|

                                                     
e|----------------------------------------------------|
B|----------------------------------------------------|
G|--------------------------8h-9h-8-----8-------------|
D|--8h-9h-8-----8--------------------9----------------|
A|-----------9----------------------------------------|
E|----------------------------------------------------|

                                                     
e|----------------------------------------------------|
B|----------------------------------------------------|
G|--9h-11h9h-8h-9-----------8h-9h-8-----8-------------|
D|-----------------------------------9----------------|
A|----------------------------------------------------|
E|----------------------------------------------------|

                                                                  
e|----------------------------------------------------|-------|----|
B|----------------------------------------------------|-------|----|
G|--------------------8-----11h9h-8-----8-------------|--8----|----|
D|--8h-9h-8-----11----------------------------11------|-------|----|
A|----------------------------------------------------|-------|----|
E|----------------------------------------------------|-------|----|

                                                          
e|----------------------------|----------------------------|
B|----------------------------|----------------------------|
G|-----8-----------8----------|-----8----------------------|
D|--------9h-8--------9h-8----|--------9h-8--------8-------|
A|----------------------------|--------------9--------9----|
E|----------------------------|----------------------------|

                                                          
e|----------------------------|----------------------------|
B|----------------------------|----------------------------|
G|----------------------------|-----8--------8-------------|
D|--------9h-8--------8h-9----|--------9--------9----------|
A|--------------9-------------|----------------------------|
E|----------------------------|----------------------------|

                                                                      >
e|----------------------------|----------------------------|-------|-------||
B|----------------------------|----------------------------|-------|-------||
G|----------------------------|----------------------------|--8L---|--8----||
D|-----8----------------------|-----8----------------------|-------|-------||
A|--------9--------9----------|--------9-------------------|-------|-------||
E|----------------------------|----------------------------|-------|-------||



************************************

| ~  Vibrato
| h  Hammer-on
| x  Dead note
| .  
Staccato
| L  Tied note  
| M  Palm mute  
| oo Reprise  
| s  
Slide

************************************
Suggest correction
Creating personal tab
Creating personal tab
You can edit any tab online and save it as your Personal.

You can edit, replace or remove any tab part or add personal notes – all changes will be seen only by you.

Personal tabs can be accessed anytime from any device, even offline.
Learn more »
Give kudos to tab author, rate the tab!
1 2 3 4 5
comments
print report bad tab
guest
You may want to rate the tab now too:
select rating
Wanna post a correction for this tab? Suggest correction