Oops, an error
Loading. Please wait.

Railroad Cancellation tab

82 views 3 this week
no commentswrite comment
1 2 3 4 5
2 more votes to show rating
add to favorites
×
Save as Personal and add changes to this tab that will be seen only by you. Learn more ›
×
You can save this tab as Personal to edit and correct it or add notes. All changes will be seen only by you. Learn more »
launch autoscroll
font size
0
reset
how to read this tab
guitar tuner
edit
Autoscroll
slow
fast
+/-
esc
set tempo
stop
Author
Difficulty
About this tab version
This tab contains additional licks and riffs used in the left and right channels that were previously untabbed. Was this info helpful? Yes No
Railroad Cancellation off of the 2006 Don Cab album 'World Class Listening Problem'

[INTRO]                          
e|---------------------------|    
B|---------------------------|    
G|---------------------------| x5 
D|---------------------------|    
A|----------6-9--------------|    
E|---------------------------|    

[Chords at 0:09]                  
e|------------------------------|
B|------------------------------|
G|----11----13-----8-----6------|x1
D|----11----13-----8-----6------|
A|----9-----11-----6-----4------|
E|------------------------------|

Loop 1 starts at 0:32, repetitive part at 1:11        
e|-------------------------------------------|        
B|-----12-12--12-12---11-11-11-11------------|        
G|----------------------------------(13-13)--| x7     
D|-------------------------------------------|        
A|-------------------------------------------|        
E|-------------------------------------------|

Major Second Duads at 0:48
e|--------------------------------------|
B|--------------------------------------|
G|--------3-3-----------6-6-------------|  x10
D|----6-6-----6-----9-9-----9-----------|
A|--------------------------------------|
E|--------------------------------------|

Left Channel Guitar Harmony 2:29  
e|--------------------|           
B|--------------------|           
G|-----3-4------------| x4      
D|-----------4--2-----|           
A|--------------------|           
E|--------------------|   

Right Channel Guitar Harmony 2:29
e|----------------------|
B|----------------------|
G|----------------------| x4
D|----4-6-----1---------|
A|--------------2-------|
E|----------------------|

Left Channel Arpeggio 2:45 {Palm Mute}   
e|---------------------------|           
B|---------------------------|           
G|---------6---6-8-----------|  x12      
D|-----4-6---6---------------|           
A|---------------------------|           
E|---------------------------|     

Right Channel Loop 2:45 {Add slight vibrato}
e|-----------------------------------------|
B|--14----14--16-16---------9-9------------|
G|-----16---------------------------11-11--| x12
D|-----------------------------------------|
A|-----------------------------------------|
E|-----------------------------------------|      

Bassline at 3:36:                
G|--------------------|                        
D|--------------------|                        
A|--------------------|                        
E|--7-7-7-7-7-7-7-7---|                        
                                                                                             
Palm Muted Chord {As this part progresses,gently remove your palm}
e|----------------------|
B|---4-4-4-4-4-4-4-4----|
G|---4-4-4-4-4-4-4-4----|
D|----------------------|
A|----------------------|
E|----------------------|

Left Channel Note Stabs at 4:43       
e|-11-11-11-11-11-----------|         
B|-----------------11-11b12-|         
G|--------------------------| x8      
D|--------------------------|         
A|--------------------------|         
E|--------------------------|         

Violent Crescendo Bends 4:42       
e|------------|                    
B|--12--------|                    
G|--15b16-----| x24                
D|------------|                    
A|------------|                    
E|------------|                    

End on a B Chord,
e|---------|     
B|-----12--|     
G|-----11--| or  
D|-----9---|     
A|---------|     
E|---------|     

e|--------|
B|--(4)---|
G|---4----|
D|---4----|
A|---2----|
E|--------|

EFFECTS: 
-For the intro, Eugene uses a tad bit of delay and reverb, so that would be your best bet
-For the Right Channel Loop at 2:45, I'm pretty sure there's some gain or drive
-The song is basically just loops and buildups, so I layered it as such
-This is my first tab, if you have any comments or concerns, feel free to message!
Suggest correction
Creating personal tab
Creating personal tab
You can edit any tab online and save it as your Personal.

You can edit, replace or remove any tab part or add personal notes – all changes will be seen only by you.

Personal tabs can be accessed anytime from any device, even offline.
Learn more »
Give kudos to tab author, rate the tab!
1 2 3 4 5
comments
print report bad tab
guest
You may want to rate the tab now too:
select rating
Wanna post a correction for this tab? Suggest correction