Oops, an error
Loading. Please wait.

Johnny Big Mouth Bass Tab

1,664 views 9 this week
no commentswrite comment
1 2 3 4 5
please rate
add to favorites
launch autoscroll
font size
0
reset
guitar tuner
Autoscroll
slow
fast
+/-
esc
set tempo
stop
Help us to improve Ultimate-Guitar.com Take our survey!
×
Author
    Title - Johnny Big Mouth
    Artist - Don Carlos
    Tabbed by - Mat Bean
    E-mail - mattydread2@yahoo.com

     intro/chorus;(X2)
  G|------------------------------------|
  D|------------------------------------|
  A|-------7-7------7-7----7-7-------7--|
  E|--5-5------5-5------5-------5-5-----|

  G|------------------------------------|
  D|------------------------------------|
  A|-------5-5------5-5----5-5-------5--|
  E|--3-3------3-3------3-------3-3-----|

     verse (X2)
  G|---------------------------------------------------------|
  D|---------------------------------------------------------|
  A|-------7-7------7-7----7-7-------7------10-10-----10-10--|
  E|--5-5------5-5------5-------5-5----8-8---------8-8-------|

  G|------------------------------------------------------|
  D|------------------------------------------------------|
  A|------7-7-----7-------7-7------7--------5-5------5----|
  E|--5-------5-5-----5-5------5-5-----3-3------3-3-------|

  G|------------------------------------|
  D|------------------------------------|
  A|-------7-7------7-7----7-7-------7--|
  E|--5-5------5-5------5-------5-5-----|

    repeat chorus, verse until end

Official Don Carlos website;  www.mynameisdon.com
Suggest correction
Give kudos to tab author, rate the tab!
1 2 3 4 5
comments
print report bad tab
guest
You may want to rate the tab now too:
select rating
Please do not post tabs as comments. Select "correction" instead!