Oops, an error
Loading. Please wait.

Heavy Metal Takin A Ride tab

version 1
version 1

Whole song

Interactive

32,946 views 60 this week
no commentswrite comment
1 2 3 4 5
x 7
add to favorites
×
Save as Personal and add changes to this tab that will be seen only by you. Learn more ›
×
You can save this tab as Personal to edit and correct it or add notes. All changes will be seen only by you. Learn more »
launch autoscroll
font size
0
reset
how to read this tab
guitar tuner
backing track
0:00
0:00
edit
Autoscroll
slow
fast
+/-
esc
set tempo
stop
Author
Unregistered
HEAVY METAL (TAKIN' A RIDE)
As recorded by Don Felder
(From the 1981 Album HEAVY METAL SOUNDTRACK)

Transcribed by Russell Montana
        
Words and Music by Don Felder

Gtr I (E A D G B E) - 'Rhythm Guitar'
Gtr II (E A D G B E) - 'Lead Guitar'
Gtr III (E A D G) - 'Bass'

[Intro]
   Gtr I
e|------------------|--------------|------------------|--------------|
B|------------------|--------------|-8-7--------------|--------------|
G|-7-9--------------|--------------|-9-7--------------|--------------|
D|-7-9--------------|--------------|-7-7-7----7---7---|-7-7-7-5------|
A|-5-7-7----7---7---|-7-7-7-7------|------------------|--------------|
E|------------------|--------------|------------------|--------------|
|
 | Gtr II
 | E E H.             W              E E H.             W
e|------------------|--------------|------------------|--------------|
B|------------------|--------------|-8-7--------------|--------------|
G|-7-9--------------|--------------|-9-7--------------|--------------|
D|-7-9--------------|--------------|-7-7--------------|--------------|
A|-5-7--------------|--------------|------------------|--------------|
E|------------------|--------------|------------------|--------------|
|
 | Gtr III
 | E E E  E E E E E   E E E E H      E E E  E E E E E   E E E E H
G|------------------|--------------|------------------|--------------|
D|------------------|--------------|------------------|--------------|
A|-5----------------|--------------|------------------|--------------|
E|---0-0----0---0---|-0-0-0-0------|-3-5-5----5---5---|-5-5-5-3------|

   E E E  E E E E E   E E E E H      E E E  E E E E S S   E  E E  E  +H
e|------------------|--------------|--------------------|--------------------|
B|------------------|--------------|-8-7----------------|--------------------|
G|-7-9--------------|--------------|-9-7----------------|--------------------|
D|-7-9--------------|--------------|-7-7-7----7---7-x-x-|--------------------|
A|-5-7-7----7---7---|-7-7-7-7------|--------------------|---12---10-(10)-----|
E|------------------|--------------|--------------------|-9----9-------------|
|
 | E E H.             W              E E H.               W               a
e|------------------|--------------|--------------------|--------------------|
B|------------------|--------------|-8-7----------------|--------------------|
G|-7-9--------------|--------------|-9-7----------------|-----------------7h=|
D|-7-9--------------|--------------|-7-7----------------|--------------------|
A|-5-7--------------|--------------|--------------------|--------------------|
E|------------------|--------------|--------------------|--------------------|
|
 | E E E  E E E E E   E E E E H      E E E  E E E E   E   E  E E  E  +H
G|------------------|--------------|--------------------|--------------------|
D|------------------|--------------|--------------------|--------------------|
A|-5----------------|--------------|--------------------|---12---10-(10)-----|
E|---0-0----0---0---|-0-0-0-0------|-3-5-5----5---5-----|-9----9-------------|

   E E E E E E E E    E  E E E H             E E  E  E E E E E    E  E E E H
e|-----------------|-----------------------|-------------------|----------------|
B|-----------------|-----------------------|-8-7---------------|----------------|
G|-7-9-------------|-----------------------|-9-7---------------|----------------|
D|-7-9-------------|-----------------------|-7-7--7----7---7---|--7--7-7-5------|
A|-5-7-7---7---7---|--7--7-7-7-------------|-------------------|----------------|
E|-----------------|-----------------------|-------------------|----------------|
|
 | ~~~~~~~~~~~~~~~~~~~~~~                      ~~~~~~~~~~~~~~~~~~~~~~
 | W                 +H        E   E E E     E E +H.             +W
e|-----------------|-----------------------|-------------------|----------------|
B|-----------------|-----------------------|-------------------|----------------|
G|-9---------------|-(9)-----------7-7-----|-------------------|----------------|
D|-----------------|-----------7b9-----7b9r|=7-5-(5)-----------|-(5)------------|
A|-----------------|-----------------------|-------------------|----------------|
E|-----------------|-----------------------|-------------------|----------------|
|
 | E E E E E E E E    E  E E E H             E E  E  E E E E E    E  E E E H
G|-----------------|-----------------------|-------------------|----------------|
D|-----------------|-----------------------|-------------------|----------------|
A|-5---------------|-----------------------|-------------------|----------------|
E|---0-0---0---0---|--0--0-0-0-------------|-3-5--5----5---5---|--5--5-5-3------|

    E     E E E E E   E   E   E E  E E H
e|--------------------------|------------------|
B|--------------------------|------------------|
G|--7-----9-----------------|------------------|
D|--7-----9-----------------|------------------|
A|--5-----7-7---7-----7-----|-7-7--7-7---------|
E|--------------------------|------------------|
|
 |  H.               +E   E   E Q.     H
e|--------------------------|------------------|
B|-10b12============(10)r-5-|-8p5------8b10----|
G|--------------------------|------------------|
D|--------------------------|------------------|
A|--------------------------|------------------|
E|--------------------------|------------------|
|
 |  E     E E E E E   E   E   E E  E E H
G|--------------------------|------------------|
D|--------------------------|------------------|
A|--5-----------------------|------------------|
E|--------0-0---0-----0-----|-0-0--0-0---------|

    E  E  E     E  E     E E S S    E   E E  E  +H
e|-------------------------------|---------------------|
B|--8--7-------------------------|---------------------|
G|--9--7-------------------------|---------------------|
D|--7--7--7--------7-------7-x-x-|---------------------|
A|-------------------------------|-----12---10-(10)----|
E|-------------------------------|--9-----9------------|
|
 |                           ~~~~~~~~~~
 | +Q     E     E  E     E E E     +W
e|-------------10----------------|---------------------|
B|-(8)---10b12----10b12-10-8-----|---------------------|
G|---------------------------9---|-(9)-----------------|
D|-------------------------------|---------------------|
A|-------------------------------|---------------------|
E|-------------------------------|---------------------|
|
 |  E  E  E     E  E     E E E      E   E E  E  +H
G|-------------------------------|---------------------|
D|-------------------------------|---------------------|
A|-------------------------------|-----12---10-(10)----|
E|--3--5--5--------5-------5-----|--9-----9------------|

[Verse]
   $
   E E E  E E E E E   E E E E H      E E E  E E E E E   E E E E H
e|------------------|--------------|------------------|--------------|
B|------------------|--------------|-8-7--------------|--------------|
G|-7-9--------------|--------------|-9-7--------------|--------------|
D|-7-9--------------|--------------|-7-7-7----7---7---|-7-7-7-5------|
A|-5-7-7----7---7---|-7-7-7-7------|------------------|--------------|
E|------------------|--------------|------------------|--------------|
|
 | E E H.             W              E E H.             W
e|------------------|--------------|------------------|--------------|
B|------------------|--------------|-8-7--------------|--------------|
G|-7-9--------------|--------------|-9-7--------------|--------------|
D|-7-9--------------|--------------|-7-7--------------|--------------|
A|-5-7--------------|--------------|------------------|--------------|
E|------------------|--------------|------------------|--------------|
|
 | E E E  E E E E E   E E E E H      E E E  E E E E E   E E E E H
G|------------------|--------------|------------------|--------------|
D|------------------|--------------|------------------|--------------|
A|-5----------------|--------------|------------------|--------------|
E|---0-0----0---0---|-0-0-0-0------|-3-5-5----5---5---|-5-5-5-3------|

   E E E  E E E E E   E E E E H      E E E  E E E E S S   E  E E  E  +H
e|------------------|--------------|--------------------|-------------------|
B|------------------|--------------|-8-7----------------|-------------------|
G|-7-9--------------|--------------|-9-7----------------|-------------------|
D|-7-9--------------|--------------|-7-7-7----7---7-x-x-|-------------------|
A|-5-7-7----7---7---|-7-7-7-7------|--------------------|---12---10-(10)----|
E|------------------|--------------|--------------------|-9----9------------|
|
 | E E H.             W              E E H.               W
e|------------------|--------------|--------------------|-------------------|
B|------------------|--------------|-8-7----------------|-------------------|
G|-7-9--------------|--------------|-9-7----------------|-------------------|
D|-7-9--------------|--------------|-7-7----------------|-------------------|
A|-5-7--------------|--------------|--------------------|-------------------|
E|------------------|--------------|--------------------|-------------------|
|
| E E E  E E E E E   E E E E H      E E E  E E E E E     E  E E  E  +H
|------------------|--------------|--------------------|-------------------|
|------------------|--------------|--------------------|-------------------|
|-5----------------|--------------|--------------------|---12---10-(10)----|
|---0-0----0---0---|-0-0-0-0------|-3-5-5----5---5-----|-9----9------------|


   E E E  E E E E E   E E E E H      E E E  E E E E E   E E E E H
e|------------------|--------------|------------------|--------------|
B|------------------|--------------|-8-7--------------|--------------|
G|-7-9--------------|--------------|-9-7--------------|--------------|
D|-7-9--------------|--------------|-7-7-7----7---7---|-7-7-7-5------|
A|-5-7-7----7---7---|-7-7-7-7------|------------------|--------------|
E|------------------|--------------|------------------|--------------|
|
 | E E H.             W              E E H.             W
e|------------------|--------------|------------------|--------------|
B|------------------|--------------|-8-7--------------|--------------|
G|-7-9--------------|--------------|-9-7--------------|--------------|
D|-7-9--------------|--------------|-7-7--------------|--------------|
A|-5-7--------------|--------------|------------------|--------------|
E|------------------|--------------|------------------|--------------|
|
 | E E E  E E E E E   E E E E H      E E E  E E E E E   E E E E H
G|------------------|--------------|------------------|--------------|
D|------------------|--------------|------------------|--------------|
A|-5----------------|--------------|------------------|--------------|
E|---0-0----0---0---|-0-0-0-0------|-3-5-5----5---5---|-5-5-5-3------|

   E E E  E E E E E   E E E E H      E E E E E E E E
e|------------------|--------------|-----------------|
B|------------------|--------------|-8-7-------------|
G|-7-9--------------|--------------|-9-7-----------2-|
D|-7-9--------------|--------------|-7-7-7---7-5-4-2-|
A|-5-7-7----7---7---|-7-7-7-7------|-----------------|
E|------------------|--------------|-----------------|
|
 | E E H.             W              E E H E       E
e|------------------|--------------|-----------------|
B|------------------|--------------|-8-7-------------|
G|-7-9--------------|--------------|-9-7-----------9-|
D|-7-9--------------|--------------|-7-7-------------|
A|-5-7--------------|--------------|-----------------|
E|------------------|--------------|-----------------|
|
 | E E E  E E E E E   E E E E H      E E E E E E E E
G|------------------|--------------|-----------------|
D|------------------|--------------|-----------------|
A|-5----------------|--------------|-----------------|
E|---0-0----0---0---|-0-0-0-0------|-3-5-5---5-3-2-0-|

[Chorus]
   +W            H..       E   +W
e|-------------|-------------|--------|
B|-------------|-------------|--------|
G|-(2)---------|-------------|--------|
D|-(2)---------|-7---------5-|-(5)----|
A|-------------|-7---------5-|-(5)----|
E|-------------|-5---------3-|-(3)----|
|
 | +W            H..       E   +W
e|-------------|-------------|--------|
B|-------------|-------------|--------|
G|-(9)\--------|-------------|--------|
D|-------------|-7---------5-|-(5)----|
A|-------------|-7---------5-|-(5)----|
E|-------------|-5---------3-|-(3)----|
|
 | +W            H..       E   +W
G|-------------|-------------|--------|
D|-------------|-------------|--------|
A|-------------|-------------|--------|
E|-(0)---------|-5---------3-|-(3)----|

   E E  E    E E E  E     E       E     E  E  E   H
e|-----------------------------|-------------------------|
B|-----------------------------|-------------------------|
G|-7-9-------------------------|-------------------------|
D|-7-9-------------------------|-------------------------|
A|-5-7--7------7----7----------|--7-----7--7--7----------|
E|-----------------------------|-------------------------|
|
 |                                            ~~~~~~~~
 | Q    H           E     E       E     E  E  E  +H
e|-----12b15-------12b15r12b14-|-12b15r12-10-12-(12)\----|
B|-----------------------------|-------------------------|
G|-----------------------------|-------------------------|
D|-----------------------------|-------------------------|
A|-----------------------------|-------------------------|
E|-----------------------------|-------------------------|
|
 | E E  E    E E E  E     E       E     E  E  E   H
G|-----------------------------|-------------------------|
D|-----------------------------|-------------------------|
A|-5---------------------------|-------------------------|
E|---0--0------0----0----------|--0-----0--0--0----------|

   H..            E   +W
e|------------------|------------------|
B|------------------|------------------|
G|------------------|------------------|
D|-7--------------5-|-(5)--------------|
A|-7--------------5-|-(5)--------------|
E|-5--------------3-|-(3)--------------|
|
 | H      +E  E E E   +E  E E E +H
e|------------------|------------------|
B|------------------|------------------|
G|-2------(2)-----5-|-(5)-----7-(7)----|
D|-2------(2)-----5-|-(5)-----7-(7)----|
A|-0------(0)-1-2-3-|-(3)-3-4-5-(5)----|
E|------------------|------------------|
|
 | H      +E  E E E   +E  E E E +H
G|------------------|------------------|
D|------------------|------------------|
A|-0------(0)-1-2-3-|-(3)-3-4-5-(5)----|
E|------------------|------------------|

   E E E E E E E E   E  E E E H      H..       E   +W
e|-----------------|---------------|-------------|--------|
B|-----------------|---------------|-------------|--------|
G|-7-9-------------|---------------|-------------|--------|
D|-7-9-------------|---------------|-7---------5-|-(5)----|
A|-5-7-7---7---7---|-7--7-7-7------|-7---------5-|-(5)----|
E|-----------------|---------------|-5---------3-|-(3)----|
 |
 | <
 | ~~~~~~~~~~~~~~~~~~~~~
 | W                 W               H..       E   +W
e|-----------------|---------------|-------------|--------|
B|-----------------|---------------|-------------|--------|
G|-9---------------|-9\------------|-------------|--------|
D|-----------------|---------------|-7---------5-|-(5)----|
A|-----------------|---------------|-7---------5-|-(5)----|
E|-----------------|---------------|-5---------3-|-(3)----|
|
 | E E E E E E E E   E  E E E H      H..       E   +W
G|-----------------|---------------|-------------|--------|
D|-----------------|---------------|-------------|--------|
A|-5---------------|---------------|-------------|--------|
E|---0-0---0---0---|-0--0-0-0------|-5---------3-|-(3)----|

   E E  E    E E E  E     E    E  E  E E  H
e|--------------------------|---------------------|
B|--------------------------|---------------------|
G|-7-9----------------------|---------------------|
D|-7-9----------------------|---------------------|
A|-5-7--7------7----7-------|--7--7--7-7----------|
E|--------------------------|---------------------|
|
 |                                ~~~
 | Q    H           E     e    E  Q.      H
e|-----15b17-------15b17-12-|-15p12------15b17----|
B|--------------------------|---------------------|
G|--------------------------|---------------------|
D|--------------------------|---------------------|
A|--------------------------|---------------------|
E|--------------------------|---------------------|
|
 | E E  E    E E E  E     E    E  E  E E  H
G|--------------------------|---------------------|
D|--------------------------|---------------------|
A|-5------------------------|---------------------|
E|---0--0------0----0-------|--0--0--0-0----------|

   H..            E   +W
e|------------------|------------------|
B|------------------|------------------|
G|------------------|------------------|
D|-7--------------5-|-(5)--------------|
A|-7--------------5-|-(5)--------------|
E|-5--------------3-|-(3)--------------|
|
 | H      +E  E E E   +E  E E E +H
e|------------------|------------------|
B|------------------|------------------|
G|-2------(2)-----5-|-(5)-----7-(7)----|
D|-2------(2)-----5-|-(5)-----7-(7)----|
A|-0------(0)-1-2-3-|-(3)-3-4-5-(5)----|
E|------------------|------------------|
|
 | H      +E  E E E   +E  E E E +H
G|------------------|------------------|
D|------------------|------------------|
A|-0------(0)-1-2-3-|-(3)-3-4-5-(5)----|
E|------------------|------------------|

[Break]
   E E E  E E E E E   E E E E H      E E E  E E E E E   E E E E H
e|------------------|--------------|------------------|--------------|
B|------------------|--------------|-8-7--------------|--------------|
G|-7-9--------------|--------------|-9-7--------------|--------------|
D|-7-9--------------|--------------|-7-7-7----7---7---|-7-7-7-5------|
A|-5-7-7----7---7---|-7-7-7-7------|------------------|--------------|
E|------------------|--------------|------------------|--------------|
|
 | E E H.             W              E E H.             W
e|------------------|--------------|------------------|--------------|
B|------------------|--------------|-8-7--------------|--------------|
G|-7-9--------------|--------------|-9-7--------------|--------------|
D|-7-9--------------|--------------|-7-7--------------|--------------|
A|-5-7--------------|--------------|------------------|--------------|
E|------------------|--------------|------------------|--------------|
|
 | E E E  E E E E E   E E E E H      E E E  E E E E E   E E E E H
G|------------------|--------------|------------------|--------------|
D|------------------|--------------|------------------|--------------|
A|-5----------------|--------------|------------------|--------------|
E|---0-0----0---0---|-0-0-0-0------|-3-5-5----5---5---|-5-5-5-3------|

   E E E  E E E E E   E E E E H      E E E E E E E S S    E   E E  E  +H
e|------------------|--------------|-------------------|---------------------|
B|------------------|--------------|-8-7---------------|---------------------|
G|-7-9--------------|--------------|-9-7---------------|---------------------|
D|-7-9--------------|--------------|-7-7-7---7---7-x-x-|---------------------|
A|-5-7-7----7---7---|-7-7-7-7------|-------------------|-----12---10-(10)----|
E|------------------|--------------|-------------------|--9-----9------------|
 |
 |                                   <
 |                                   ~~~~~~~~~~~~~~~~~~~~~~~~
 | E E H.             W              W                   +W
e|------------------|--------------|-------------------|---------------------|
B|------------------|--------------|-------------------|---------------------|
G|-7-9--------------|--------------|-9-----------------|-(9)-----------------|
D|-7-9--------------|--------------|-------------------|---------------------|
A|-5-7--------------|--------------|-------------------|---------------------|
E|------------------|--------------|-------------------|---------------------|
|
 | E E E  E E E E E   E E E E H      E E E E E E E E      E   E E  E  +H
G|------------------|--------------|-------------------|---------------------|
D|------------------|--------------|-------------------|---------------------|
A|-5----------------|--------------|-------------------|-----12---10-(10)----|
E|---0-0----0---0---|-0-0-0-0------|-3-5-5---5---5-----|--9-----9------------|

[Solo]
   E E E E E E E E    E  E E E H             E E  E  E E E E E    E  E E E H
e|-----------------|-----------------------|-------------------|----------------|
B|-----------------|-----------------------|-8-7---------------|----------------|
G|-7-9-------------|-----------------------|-9-7---------------|----------------|
D|-7-9-------------|-----------------------|-7-7--7----7---7---|--7--7-7-5------|
A|-5-7-7---7---7---|--7--7-7-7-------------|-------------------|----------------|
E|-----------------|-----------------------|-------------------|----------------|
|
 | ~~~~~~~~~~~~~~~~~~~~~~                      ~~~~~~~~~~~~~~~~~~~~~~
 | W                 +H        E   E E E     E E +H.             +W
e|-----------------|-----------------------|-------------------|----------------|
B|-----------------|-----------------------|-------------------|----------------|
G|-9---------------|-(9)-----------7-7-----|-------------------|----------------|
D|-----------------|-----------7b9-----7b9r|=7-5-(5)-----------|-(5)------------|
A|-----------------|-----------------------|-------------------|----------------|
E|-----------------|-----------------------|-------------------|----------------|
|
 | E E E E E E E E    E  E E E H             E E  E  E E E E E    E  E E E H
G|-----------------|-----------------------|-------------------|----------------|
D|-----------------|-----------------------|-------------------|----------------|
A|-5---------------|-----------------------|-------------------|----------------|
E|---0-0---0---0---|--0--0-0-0-------------|-3-5--5----5---5---|--5--5-5-3------|

    E     E E E E E   E   E   E E  E E H
e|--------------------------|------------------|
B|--------------------------|------------------|
G|--7-----9-----------------|------------------|
D|--7-----9-----------------|------------------|
A|--5-----7-7---7-----7-----|-7-7--7-7---------|
E|--------------------------|------------------|
|
 |  H.               +E   E   E Q.     H
e|--------------------------|------------------|
B|-10b12============(10)r-5-|-8p5------8b10----|
G|--------------------------|------------------|
D|--------------------------|------------------|
A|--------------------------|------------------|
E|--------------------------|------------------|
|
 |  E     E E E E E   E   E   E E  E E H
G|--------------------------|------------------|
D|--------------------------|------------------|
A|--5-----------------------|------------------|
E|--------0-0---0-----0-----|-0-0--0-0---------|

    E  E  E     E  E     E E S S    E   E E  E  +H
e|-------------------------------|---------------------|
B|--8--7-------------------------|---------------------|
G|--9--7-------------------------|---------------------|
D|--7--7--7--------7-------7-x-x-|---------------------|
A|-------------------------------|-----12---10-(10)----|
E|-------------------------------|--9-----9------------|
|
 |                           ~~~~~~~~~~
 | +Q     E     E  E     E E E     +W
e|-------------10----------------|---------------------|
B|-(8)---10b12----10b12-10-8-----|---------------------|
G|---------------------------9---|-(9)-----------------|
D|-------------------------------|---------------------|
A|-------------------------------|---------------------|
E|-------------------------------|---------------------|
|
 |  E  E  E     E  E     E E E      E   E E  E  +H
G|-------------------------------|---------------------|
D|-------------------------------|---------------------|
A|-------------------------------|-----12---10-(10)----|
E|--3--5--5--------5-------5-----|--9-----9------------|

   E    E E E E E E  E    E E E    E  H
e|---------------------|--------------------|
B|---------------------|--------------------|
G|-7----9--------------|--------------------|
D|-7----9--------------|--------------------|
A|-5----7-7---7---7----|--7-7-7----7--------|
E|---------------------|--------------------|
|
 |                                    ~~~~~~~
 | H.             E  E    E E S  S E +H
e|-9b10-----------7----|----7---------------|
B|------------------10-|-10---8-10-8-(8)----|
G|---------------------|--------------------|
D|---------------------|--------------------|
A|---------------------|--------------------|
E|---------------------|--------------------|
|
 | E    E E E E E E  E    E E E    E  H
G|---------------------|--------------------|
D|---------------------|--------------------|
A|-5-------------------|--------------------|
E|------0-0---0---0----|--0-0-0----0--------|

    E  E  E     E  E     E E E    E  E E E H
e|-----------------------------|----------------|
B|--8--7-----------------------|----------------|
G|--9--7-----------------------|----------------|
D|--7--7--7--------7-------7---|--7--7-7-5------|
A|-----------------------------|----------------|
E|-----------------------------|----------------|
|
 |~~~~~                      ~~~~~~~~
 | +Q     E     E  E     E E E   +W
e|-------------10--------------|----------------|
B|-(8)---10b12----10b12-10-8-8-|-(8)------------|
G|-----------------------------|----------------|
D|-----------------------------|----------------|
A|-----------------------------|----------------|
E|-----------------------------|----------------|
|
 |  E  E  E     E  E     E E E    E  E E E H
G|-----------------------------|----------------|
D|-----------------------------|----------------|
A|-----------------------------|----------------|
E|--3--5--5--------5-------5---|--5--5-5-3------|

    E    E  E     E     E     E     E     E         E   E  E     E     H
e|----------------------------------------------|----------------------------------------|
B|----------------------------------------------|----------------------------------------|
G|--7----9--------------------------------------|----------------------------------------|
D|--7----9--------------------------------------|----------------------------------------|
A|--5----7--7-----------7-----------7-----------|---7---7--7-----7-----------------------|
E|----------------------------------------------|----------------------------------------|
|
 |  Q       E     E     E     E     E     E        +Q      E     E     E     E     Q
e|-10b12---10b12-10b12-10b12-10b12-10b12-10b12==|=(10)r---10b12-10b12-10b12-10b12-10b12--|
B|----------------------------------------------|----------------------------------------|
G|----------------------------------------------|----------------------------------------|
D|----------------------------------------------|----------------------------------------|
A|----------------------------------------------|----------------------------------------|
E|----------------------------------------------|----------------------------------------|
|
 |  E    E  E     E     E     E     E     E         E   E  E     E     H
G|----------------------------------------------|----------------------------------------|
D|----------------------------------------------|----------------------------------------|
A|--5-------------------------------------------|----------------------------------------|
E|-------0--0-----------0-----------0-----------|---0---0--0-----0-----------------------|

    E    E  E    E  E    E  E    S S    E   E E  E  +H
e|-----------------------------------|---------------------------------|
B|--8----7---------------------------|---------------------------------|
G|--9----7---------------------------|---------------------------------|
D|--7----7--7-------7-------7----x-x-|---------------------------------|
A|-----------------------------------|-----12---10-(10)----------------|
E|-----------------------------------|--9-----9------------------------|
|
 |  ~~~~~~~~~~~~~~~~~~~~~~~~~~~~~
 |  Q       Q       Q       Q           H            S  S S S S S S S
e|-10b12---10b12---10b12---10b12-----|---------------------------------|
B|-----------------------------------|---------------------------------|
G|-----------------------------------|-12\-----------2S=3S4S5S6S7S8S9--|
D|-----------------------------------|---------------------------------|
A|-----------------------------------|---------------------------------|
E|-----------------------------------|---------------------------------|
|
 |  E    E  E    E  E    E  E    E      E   E E  E  +H
G|-----------------------------------|---------------------------------|
D|-----------------------------------|---------------------------------|
A|-----------------------------------|-----12---10-(10)----------------|
E|--3----5--5-------5-------5--------|--9-----9------------------------|

[Outro]
   E   E  E  E  +H              +W
e|---------------------------|-------------------------------|
B|-8--10-11-12-(12)----------|-(12)--------------------------|
G|-9--11-11-12-(12)----------|-(12)--------------------------|
D|-7--12-13-14-(14)----------|-(14)--------------------------|
A|---------------------------|-------------------------------|
E|---------------------------|-------------------------------|
|
 | H.                   E  E     Q       E     E  E     Q.
e|---------------------------|--10b12---10b12-10-10b12-------|
B|------------------------12-|-------------------------12----|
G|--------------------/12----|-------------------------------|
D|---------------------------|-------------------------------|
A|---------------------------|-------------------------------|
E|---------------------------|-------------------------------|
|
 | E   E  E  E   E  E   E  E     E    E  E     E  H
G|---------------------------|-------------------------------|
D|---------------------------|-------------------------------|
A|-5-------------------------|-------------------------------|
E|-----0--0------0------0----|---0----0--0-----0-------------|

     E  E  E    E  E    E  E     E     E  E E E Q.   S S
e|---------------------------------|---------------------|
B|---8--7--------------------------|---------------------|
G|---9--7--------------------------|---------------------|
D|---7--7--7-------7-------7-------|---7--7-7-5------x-x-|
A|---------------------------------|---------------------|
E|---------------------------------|---------------------|
|
 |                                     ~~~~
 |  +Q     Q       E       Q     E    +W
e|--------10b12---10b12---10b12r10-|-(10)----------------|
B|-(12)----------------------------|---------------------|
G|---------------------------------|---------------------|
D|---------------------------------|---------------------|
A|---------------------------------|---------------------|
E|---------------------------------|---------------------|
|
 |   E  E  E    E  E    E  E     E     E  E E E H
G|---------------------------------|---------------------|
D|---------------------------------|---------------------|
A|---------------------------------|---------------------|
E|---3--5--5-------5-------5-------|---5--5-5-3----------|

   E    E  E  E  +H            +W
e|--------------------------|--------------------|
B|-8---10-11-12-(12)--------|-(12)---------------|
G|-9---11-11-12-(12)--------|-(12)---------------|
D|-7---12-13-14-(14)--------|-(14)---------------|
A|--------------------------|--------------------|
E|--------------------------|--------------------|
 |
 |                                       ~~
 | H..                    E     E Q.     Q.    E
e|--------------------------|--------------------|
B|--------------------------|--------------------|
G|--------------------------|--------------------|
D|--------------------------|-----------------/5-|
A|-----------------------/7-|---7s5------5-------|
E|--------------------------|--------------------|
|
 | E    E  E  E   E  E E  E     E E  E E H
G|--------------------------|--------------------|
D|--------------------------|--------------------|
A|-5------------------------|--------------------|
E|------0--0------0----0----|---0-0--0-0---------|


   E   E E   E E   E E   S S    E    E E  E  +H
e|---------------------------|----------------------------------|
B|-8---7---------------------|----------------------------------|
G|-9---7---------------------|----------------------------------|
D|-7---7-7-----7-----7---x-x-|----------------------------------|
A|---------------------------|------12---10-(10)----------------|
E|---------------------------|--9------9------------------------|
|
 | ~~~~~~~~~~~~~~~~~~~~~~~~~~~~~~~~~
 | Q     Q     Q     E   E     +H             S  S S S S S S S
e|---------------------------|----------------------------------|
B|---------------------------|----------------------------------|
G|---------------------------|----------------2S=3S4S5S6S7S8S9--|
D|-7b9---7b9---7b9---7b9-5---|-(5)\-----------------------------|
A|---------------------------|----------------------------------|
E|---------------------------|----------------------------------|
|
 | E   E E   E E   E E   E      E    E E  E  +H
G|---------------------------|----------------------------------|
D|---------------------------|----------------------------------|
A|---------------------------|------12---10-(10)----------------|
E|-3---5-5-----5-----5-------|--9------9------------------------|

   E  E  E  E  +H           +W
e|-----------------------|--------------------------------|
B|-8-10-11-12-(12)-------|-(12)---------------------------|
G|-9-11-11-12-(12)-------|-(12)---------------------------|
D|-7-12-13-14-(14)-------|-(14)---------------------------|
A|-----------------------|--------------------------------|
E|-----------------------|--------------------------------|
|
 |                                                  ~~~~~~~
 | W                         Q       E     E  E     Q.
e|-----------------------|--19b21---17b19-17-17b19-15-----|
B|-----------------------|--------------------------------|
G|-----------------------|--------------------------------|
D|-----------------------|--------------------------------|
A|-----------------------|--------------------------------|
E|-----------------------|--------------------------------|
|
 | E  E  E  E   E  E E E     E    E  E     E  H
G|-----------------------|--------------------------------|
D|-----------------------|--------------------------------|
A|-5---------------------|--------------------------------|
E|----0--0------0----0---|---0----0--0-----0--------------|

         E     E  E     E    E  E E E     E  E E E Q.   S S
e|------------------------------------|----------------------|
B|-------8-----7----------------------|----------------------|
G|-------9-----7----------------------|----------------------|
D|-------7-----7--7----------7----7---|---7--7-7-5------x-x--|
A|------------------------------------|----------------------|
E|------------------------------------|----------------------|
|
 |~~~~~~                        ~~~~~~~~~~~~~
 |  +Q   E     E  E     Q       E        +W
e|-(15)-17b19-17-17b19-17b19---15-----|-(15)-----------------|
B|------------------------------------|----------------------|
G|------------------------------------|----------------------|
D|------------------------------------|----------------------|
A|------------------------------------|----------------------|
E|------------------------------------|----------------------|
|
 |       E     E  E     E    E  E E E     E  E E E H
G|------------------------------------|----------------------|
D|------------------------------------|----------------------|
A|------------------------------------|----------------------|
E|-------3-----5--5----------5----5---|---5--5-5-3-----------|

    E     E  E     E  +H                      +W
e|-----------------------------------------|-------------------------------|
B|--8----10-11----12-(12)------------------|-(12)--------------------------|
G|--9----11-11----12-(12)------------------|-(12)--------------------------|
D|--7----12-13----14-(14)------------------|-(14)--------------------------|
A|-----------------------------------------|-------------------------------|
E|-----------------------------------------|-------------------------------|
|
 |                                             ~~~~~~~~~~~~~~~~~~~~~~~~~~~~~
 |  Q        Q         E     Q       E        +Q      Q       Q      Q
e|-14b15----14b15-----14b15-14b15---14b15==|=(14)r---14b15---14b15--14b15--|
B|-----------------------------------------|-------------------------------|
G|-----------------------------------------|-------------------------------|
D|-----------------------------------------|-------------------------------|
A|-----------------------------------------|-------------------------------|
E|-----------------------------------------|-------------------------------|
|
 |  E     E  E     E   E     E    E  E         E   E  E    E  H
G|-----------------------------------------|-------------------------------|
D|-----------------------------------------|-------------------------------|
A|--5--------------------------------------|-------------------------------|
E|--------0--0---------0----------0--------|---0---0--0----0---------------|

    E    E  E     E  E E  E S S    E   E E  E  +H
e|------------------------------|---------------------------------|
B|--8----7----------------------|---------------------------------|
G|--9----7----------------------|---------------------------------|
D|--7----7--7--------7----7-x-x-|---------------------------------|
A|------------------------------|-----12---10-(10)----------------|
E|------------------------------|--9-----9------------------------|
|
 |~~~~~~~~~~~~~~~~~~~~~~~~~~~~~~~~~~~~
 |  Q       Q        Q    Q        H            S  S S S S S S S
e|-14b15---14b15====14r==14-----|-14\-----------------------------|
B|------------------------------|---------------------------------|
G|------------------------------|---------------2S=3S4S5S6S7S8S9--|
D|------------------------------|---------------------------------|
A|------------------------------|---------------------------------|
E|------------------------------|---------------------------------|
|
 |  E    E  E     E  E E  E E      E   E E  E  +H
G|------------------------------|---------------------------------|
D|------------------------------|---------------------------------|
A|------------------------------|-----12---10-(10)----------------|
E|--3----5--5--------5----5-----|--9-----9------------------------|

   E   E  E  E  +H              +W
e|---------------------------|--------------------------------------|
B|-8--10-11-12-(12)----------|-(12)---------------------------------|
G|-9--11-11-12-(12)----------|-(12)---------------------------------|
D|-7--12-13-14-(14)----------|-(14)---------------------------------|
A|---------------------------|--------------------------------------|
E|---------------------------|--------------------------------------|
|
 | H.                   E  E     Q       E  E  E  E     E     E
e|------------------------15-|--19b22---15-17-19-19b20-19b22-19b20==|
B|--------------------/17----|--------------------------------------|
G|---------------------------|--------------------------------------|
D|---------------------------|--------------------------------------|
A|---------------------------|--------------------------------------|
E|---------------------------|--------------------------------------|
|
 | E   E  E  E   E  E   E  E     E    E  E  E  H
G|---------------------------|--------------------------------------|
D|---------------------------|--------------------------------------|
A|-5-------------------------|--------------------------------------|
E|-----0--0------0------0----|---0----0--0--0-----------------------|

    E      E     E  E E E E E     E  E E E Q.   S S
e|----------------------------|----------------------*|
B|--8------7------------------|----------------------*|
G|--9------7------------------|----------------------*|
D|--7------7-----7----7---7---|---7--7-7-5------x-x--*|
A|----------------------------|----------------------*|
E|----------------------------|----------------------*|
|
 |               ~~~~~~~~~~~~~~~~~~~~
 |  S   S  S  S  H.              +W
e|-19r-17-15-17-15------------|-(15)-----------------*|
B|----------------------------|----------------------*|
G|----------------------------|----------------------*|
D|----------------------------|----------------------*|
A|----------------------------|----------------------*|
E|----------------------------|----------------------*|
|
 |  E      E     E  E E E E E     E  E E E H
G|----------------------------|----------------------*|
D|----------------------------|----------------------*|
A|----------------------------|----------------------*|
E|--3------5-----5----5---5---|---5--5-5-3-----------*|

************************************

| x    Dead note
| (n)  Ghost note
| r    Release
| b    Bend
| ~    Vibrato
| p    Pull-off
| \    Slide down
| /    Slide up
| *    Natural harmonic

************************************
Suggest correction
Creating personal tab
Creating personal tab
You can edit any tab online and save it as your Personal.

You can edit, replace or remove any tab part or add personal notes – all changes will be seen only by you.

Personal tabs can be accessed anytime from any device, even offline.
Learn more »
comments
print report bad tab
guest
Wanna post a correction for this tab? Suggest correction