Oops, an error
Loading. Please wait.

End Of The Innocence bass

2,660 views 1 this week
no commentswrite comment
1 2 3 4 5
3 more votes to show rating
add to favorites
×
Save as Personal and add changes to this tab that will be seen only by you. Learn more ›
×
You can save this tab as Personal to edit and correct it or add notes. All changes will be seen only by you. Learn more »
launch autoscroll
font size
0
reset
guitar tuner
edit
Autoscroll
slow
fast
+/-
esc
set tempo
stop
Author
Artist: Don Henley
Song: End of the innocence
Tabbed by: Dolores Morrison
E-mail: snakesamedi@gmail.com
Tuning: G, D, A, E, B (standard 5 string tuning)

If the layout of the tab is weird, copy and paste it in a Word(Pad) file and change the 
font size to a smaller one. Until it fits on the page. Hope that works. If not, please 
contact me and I'll help you out.

*****************************************

Intro:
|---|-----|-----|-----|-----|-----|---------|-----|-----|
|---|-----|-----|-----|-----|-----|---------|-----|-----|
|---|-----|-----|-----|-----|-----|---------|-----|-----|
|-4-|-4-4-|-4-4-|-4-4-|-6-6-|-6-6-|-/-10-10-|-8-8-|-4-4-|
|---|-----|-----|-----|-----|-----|---------|-----|-----|

|------|-----|-----|-----|-5-6---|-----|---------|-----|-----|-------------------|
|-5-6--|-----|-----|-----|-------|-----|---------|-----|-----|-1-h-3-6---1-h-3-6-|
|------|-----|-----|-----|-------|-----|---------|-----|-----|-------------------|
|----4-|-4-4-|-4-4-|-4-4-|-----6-|-6-6-|-/-10-10-|-8-8-|-4-4-|-------------------|
|------|-----|-----|-----|-------|-----|---------|-----|-----|-------------------|

Verse 1:
|---|-----|---|-----|---|-----|---|-----|-----|---|-----|-----|------------|---|-----|
|---|-----|---|-----|---|-----|---|-----|-----|---|-----|-----|------6-5-3-|---|-----|
|---|-----|---|-----|-4-|-4-4-|-4-|-4-4-|-----|---|-----|-----|-3-4--------|---|-----|
|-4-|-4-4-|-4-|-4-4-|---|-----|---|-----|-4-4-|-4-|-4-4-|-4-4-|------------|-6-|-6-6-|
|---|-----|---|-----|---|-----|---|-----|-----|---|-----|-----|------------|---|-----|

|-----|---|-----|-----|-----|-----|-----|-----|-----|-----|---|-----|---|---------|-----|-----|
|-----|---|-----|-----|-----|-----|-----|-----|-----|-----|---|-----|---|---------|-----|-----|
|-4-6-|---|-----|-----|-----|-3-4-|-4-4-|-4-4-|-4-4-|-----|---|-----|---|-/-10-10-|-6-6-|-8-8-|
|-----|-4-|-4-4-|-4-4-|-4-4-|-----|-----|-----|-----|-4-4-|-4-|-4-4-|-4-|---------|-----|-----|
|-----|---|-----|-----|-----|-----|-----|-----|-----|-----|---|-----|---|---------|-----|-----|

Chorus:
|-----|---|---|---|---|---|---|-------|---|---|---|---|---|---|---|---|
|-----|---|---|---|-3-|---|---|-------|-6-|---|---|---|---|-3-|---|---|
|-8-8-|---|---|-4-|---|---|---|-------|---|-8-|---|---|-4-|---|---|---|
|-----|-8-|-6-|---|---|-4-|-6-|-6-4-6-|---|---|-8-|-6-|---|---|-4-|-6-|
|-----|---|---|---|---|---|---|-------|---|---|---|---|---|---|---|---|

|-8-8-h-10-p-8------|---|-----|-----|-----|-----|---|-----|---|-----|-----|-------|---|---|
|--------------10-8-|---|-----|-----|-----|-----|---|-----|---|-----|-----|-6-----|---|---|
|-------------------|---|-6-6-|-4-4-|-4-6-|-----|---|-4-4-|---|-6-6-|-4-4-|-------|---|---|
|-------------------|-4-|-----|-----|-----|-8-8-|-6-|-----|-4-|-----|-----|---8-6-|-4-|-6-|
|-------------------|---|-----|-----|-----|-----|---|-----|---|-----|-----|-------|---|---|

Instrumental:
|---|-----|-----|-----|-----|-----|---------|-----|-----|
|---|-----|-----|-----|-----|-----|---------|-----|-----|
|---|-----|-----|-----|-----|-----|---------|-----|-----|
|-4-|-4-4-|-4-4-|-4-4-|-6-6-|-6-6-|-/-10-10-|-8-8-|-4-4-|
|---|-----|-----|-----|-----|-----|---------|-----|-----|

Verse 2:
|---|-----|---|-----|---|-----|---|-----|-----|---|-----|-----|------------|---|-----|
|---|-----|---|-----|---|-----|---|-----|-----|---|-----|-----|------6-5-3-|---|-----|
|---|-----|---|-----|-4-|-4-4-|-4-|-4-4-|-----|---|-----|-----|-3-4--------|---|-----|
|-4-|-4-4-|-4-|-4-4-|---|-----|---|-----|-4-4-|-4-|-4-4-|-4-4-|------------|-6-|-6-6-|
|---|-----|---|-----|---|-----|---|-----|-----|---|-----|-----|------------|---|-----|

|-----|---|-----|-----|-----|-----|-----|-----|-----|-----|---|-----|---|---------|-----|-----|
|-----|---|-----|-----|-----|-----|-----|-----|-----|-----|---|-----|---|---------|-----|-----|
|-4-6-|---|-----|-----|-----|-3-4-|-4-4-|-4-4-|-4-4-|-----|---|-----|---|-/-10-10-|-6-6-|-8-8-|
|-----|-4-|-4-4-|-4-4-|-4-4-|-----|-----|-----|-----|-4-4-|-4-|-4-4-|-4-|---------|-----|-----|
|-----|---|-----|-----|-----|-----|-----|-----|-----|-----|---|-----|---|---------|-----|-----|

|-8-8-h-10-p-8------|
|--------------10-8-|
|-------------------|
|-------------------|
|-------------------|

Chorus:
|-----|---|---|---|---|---|---|-8-8-h-10-p-8------|---|---|---|---|---|---|---|
|-----|---|---|---|-3-|---|---|--------------10-8-|---|---|---|---|-3-|---|---|
|-8-8-|---|---|-4-|---|---|---|-------------------|-8-|---|---|-4-|---|---|---|
|-----|-8-|-6-|---|---|-4-|-6-|-------------------|---|-8-|-6-|---|---|-4-|-6-|
|-----|---|---|---|---|---|---|-------------------|---|---|---|---|---|---|---|



|---|-----|-----|-----|-----|---|-----|---|-----|-----|-------|------------|---|-----------|
|---|-----|-----|-----|-----|---|-----|---|-----|-----|-6-----|-6-h-8-p-6--|---|-6-h-8-p-6-|
|---|-6-6-|-4-4-|-4-6-|-----|---|-4-4-|---|-6-6-|-4-4-|-------|------------|---|-----------|
|-4-|-----|-----|-----|-8-8-|-6-|-----|-4-|-----|-----|---8-6-|------------|-4-|-----------|
|---|-----|-----|-----|-----|---|-----|---|-----|-----|-------|------------|---|-----------|

Instrumental:
|---------|-----|-----|-----|-----------------|-----|-----|---------|-----|-----|
|-5-/-8-6-|-6-6-|-6-6-|-6-6-|-6-6-h-8-p-6-----|-----|-----|---------|-----|-----|
|---------|-----|-----|-----|-------------8-6-|-----|-----|-/-10-10-|-8-8-|-4-4-|
|---------|-----|-----|-----|-----------------|-6-6-|-6-6-|---------|-----|-----|
|---------|-----|-----|-----|-----------------|-----|-----|---------|-----|-----|

|-8-h-10-p-8----------|---|------------|-------|----------------|-----|-----|-----|---------|
|------------10-8-6---|-8-|-10-6-8-6---|-------|-10-6-8-6-------|-----|-----|-----|---------|
|-------------------8-|---|----------8-|-6-4-1-|----------8-6-8-|-4-4-|-3-3-|-----|---------|
|---------------------|---|------------|-------|----------------|-----|-----|-4-4-|---------|
|---------------------|---|------------|-------|----------------|-----|-----|-----|-2-2-...-|

Verse 3:
|-----|---|-----|-----|-----|-----|---|-----|-----|-----|-----|
|-----|---|-----|-----|-----|-----|---|-----|-----|-----|-----|
|-----|---|-----|-----|-----|-----|-4-|-4-4-|-4-4-|-4-4-|-3-6-|
|-6-8-|-4-|-4-4-|-4-4-|-4-4-|-4-4-|---|-----|-----|-----|-----|
|-----|---|-----|-----|-----|-----|---|-----|-----|-----|-----|

|-----|-----|-----|----|-----|-6-5-3-|---|
|-----|-----|-----|----|-----|-------|---|
|-----|-----|-----|----|-4-4-|-------|---|
|-4-4-|-4-4-|-4-4-|4-4-|-----|-------|-6-|
|-----|-----|-----|----|-----|-------|---|


|---|-----|-----|-----|-----|-----|-----|-----|-----|-----|---|---------|-------|-8-h-10-p-8---|
|-6-|-----|-----|-----|-----|-----|-----|-----|-----|-----|---|-------6-|-6-----|--------------|
|---|-6-6-|-4-4-|-4-4-|-8-8-|-----|-----|-4-4-|-----|-6-6-|-4-|-4-4-6---|-------|--------------|
|---|-----|-----|-----|-----|-8-8-|-6-6-|-----|-4-4-|-----|---|---------|---8-6-|------------6-|
|---|-----|-----|-----|-----|-----|-----|-----|-----|-----|---|---------|-------|--------------|

|---|-8-8-h-10-p-8------|-----|
|---|--------------10-8-|-8---|
|---|-------------------|-----|
|-4-|-------------------|---6-|
|---|-------------------|-----|

Instrumental + Outro:
|---|-----|-----|-----|-------|-----|---------|-----|-----|-8-h-10-p-8----8-|-13-h-15-p-13----13-|
|---|-----|-----|-----|-------|-----|---------|-----|-----|------------10---|--------------15----|
|---|-----|-----|-----|-6-8---|-----|-/-10-10-|-8-8-|-4-4-|-----------------|--------------------|
|-4-|-4-4-|-4-4-|-4-4-|-----6-|-6-6-|---------|-----|-----|-----------------|--------------------|
|---|-----|-----|-----|-------|-----|---------|-----|-----|-----------------|--------------------|

|------|-----|-----|-----|-----|-------|-----|-----|-13-h-15-p-13----|-8-h-10-p-8------|
|------|-----|-----|-----|-----|-------|-----|-----|--------------15-|------------10-8-|
|------|-----|-----|-----|-----|-10-10-|-8-8-|-4-4-|-----------------|-----------------|
|-4...-|-4-4-|-4-4-|-6-6-|-6-6-|-------|-----|-----|-----------------|-----------------|
|------|-----|-----|-----|-----|-------|-----|-----|-----------------|-----------------|

|---|-----|-------------------|---|-------|-----|-----|
|-6-|-6-6-|-------6-6-h-8-p-6-|---|-------|-----|-----|
|---|-----|-6-h-8-------------|---|-10-10-|-8-8-|-4-4-|
|---|-----|-------------------|-6-|-------|-----|-----|
|---|-----|-------------------|---|-------|-----|-----|

|-6-h-8-p-6-|-8-h-10-p-8------|---|-----|---|----|-------------|
|-----------|------------10-8-|---|-----|---|----|-------------|
|-----------|-----------------|---|-----|---|----|-------------|
|-----------|-----------------|-4-|-4-4-|-4-|4-4-|-6-6-h-8-p-6-|
|-----------|-----------------|---|-----|---|----|-------------|

|---|-----|-----|-8-h-10-p-8----8-h-10-p-8-|-----|-----|-----|
|---|-----|-----|------------10------------|-----|-----|-----|
|---|-----|-----|--------------------------|-----|-----|-----|
|-4-|-4-4-|-4-4-|--------------------------|-----|-----|-----|
|---|-----|-----|--------------------------|-4-4-|-4-4-|-4-4-| Fade...

            
            
Suggest correction
Creating personal tab
Creating personal tab
You can edit any tab online and save it as your Personal.

You can edit, replace or remove any tab part or add personal notes – all changes will be seen only by you.

Personal tabs can be accessed anytime from any device, even offline.
Learn more »
Give kudos to tab author, rate the tab!
1 2 3 4 5
comments
print report bad tab
guest
You may want to rate the tab now too:
select rating
Wanna post a correction for this tab? Suggest correction