Oops, an error
Loading. Please wait.

And I Love You So Tab

version 1
version 1

Whole song

Interactive

65,059 views 93 this week
1 commentread comment
1 2 3 4 5
excellent!
x 16
add to favorites
launch autoscroll
font size
0
reset
how to read this tab
guitar tuner
Autoscroll
slow
fast
+/-
esc
set tempo
stop
Help us to improve Ultimate-Guitar.com Take our survey!
×
Capo
3rd fret
"And I Love You So" by Don McLean

For original album tuning: Capo on 4th fret, but it's easier to
                           sing the chorus by playing in a lower key.

[Intro] x2

     G
e|--------------------------------------------------------0----------|
B|--3------3-------3------3-------3-------3---3---3------------------|
G|--0----------0--------------0-------------------------------0------|
D|------0--------------2--------------0---------------2--------------|
A|-------------------------------------------------------------------|
e|--3--------------3--------------3---------------3------------------|


[Verse 1]

                 And I love you so...
     G                               Am7
e|----------0-------2-------3---------------------------------0------|
B|--3-------------------------------1-----------0---0h1--------------|
G|--------------0---------------0-----------0---------------------0--|
D|------0---------------0---------------2------------------0---------|
A|----------------------------------0---------------0----------------|
e|--3----------------------------------------------------------------|

                                     G
e|------------------0-------2-----------------------3----------------|
B|--1-------3-----------------------0-----------0--------------------|
G|--------------0---------------0-----------0------------------------|
D|------2---------------2---------------0---------------0-------0----|
A|--0----------------------------------------------------------------|
e|----------------------------------3-----------------------2--------|

     Em                              Am7
e|--------------------------0----------------------------------------|
B|--0-------1-------3---------------1-----------1---0-------1--------|
G|----------------------0-------------------0-------------------0----|
D|--------------2---------------2-------2---------------2------------|
A|------2---------------------------0---------------0----------------|
e|--0----------------------------------------------------------------|

     C                               D/F#
e|----------------------------------3-------2-------0-------2--------|
B|--1-------0--------------------------------------------------------|
G|--------------0---2-------0-------------------2---------------0----|
D|------2---------------0-------0-------0---------------0------------|
A|--3----------------------------------------------------------------|
e|----------------------------------2--------------------------------|

     G                               Am7
e|----------0-------2-------3----------------------------------------|
B|--3-------------------------------1-----------1---0-------1--------|
G|--0-----------0---------------0-----------0-------------------0----|
D|------0---------------0---------------2---------------2------------|
A|----------------------------------0---------------0----------------|
e|--3----------------------------------------------------------------|

                                     G
e|------------------0-------2-----------------------3----------------|
B|--1-------3-----------------------0-----------0--------------------|
G|--------------0---------------0-----------0------------------------|
D|------2---------------2---------------0---------------0-------0----|
A|--0----------------------------------------------------------------|
e|----------------------------------3-----------------------2--------|

     Em                              Am7
e|--------------------------0----------------------------------------|
B|--0-------1-------3---------------1-----------1---0-------1--------|
G|----------------------0-------------------0-------------------0----|
D|--------------2---------------2-------2---------------2------------|
A|------2---------------------------0---------------0----------------|
e|--0----------------------------------------------------------------|

     C               D               G
e|----------------------------------------------------------0--------|
B|--1-------0---------------3-------3-------3-------3----------------|
G|--------------0---2-----------0---0-----------0---------------0----|
D|------2---------------0---------------0---------------2------------|
A|--3----------------------------------------------------------------|
e|------------------2---------------3---------------3----------------|


e|--------------------------0----------------------------------------|
B|--3-------3---3---3------------------------------------------------|
G|-------------------------------0-----------------------------------|
D|------0---------------2--------------------------------------------|
A|-------------------------------------------------------------------|
e|--3---------------3------------------------------------------------|


[Chorus 1]

   And yes I know...
     G
e|--3-------2-------0-------------------------------0-------2--------|
B|--------------------------4-------3-------4------------------------|
G|--------------0---------------0---------------0---------------0----|
D|------0---------------0---------------0---------------0------------|
A|-------------------------------------------------------------------|
e|--3---------------3---------------3---------------3----------------|

     Am                              Am7
e|--3-------2-------0-------2-------3---------------0----------------|
B|------------------------------------------1---------------1--------|
G|--------------2---------------2---------------0---------------0----|
D|------2---------------2---------------2---------------2------------|
A|--0---------------0---------------0---------------0----------------|
e|-------------------------------------------------------------------|

     Am                              Am7/F#
e|--3-------2-------0---------------------------------------2--------|
B|--------------------------1-------------------0---1----------------|
G|--------------2---------------2-----------2-------------------0----|
D|------2---------------2---------------0---------------0------------|
A|--0---------------0------------------------------------------------|
e|----------------------------------2---------------2----------------|

     G
e|-------------------------------------------------------------------|
B|--0-----------0---1-----------1---0-----------0---1-------0--------|
G|--0-------0-------0-------0-------0-------0-------0-------0--------|
D|------0---------------0---------------0---------------0------------|
A|-------------------------------------------------------------------|
e|--3---------------3---------------3---------------3-------3---2----|

     Em
e|----------------------------------0--------------------------------|
B|----------1-------3-------4----------------------------------------|
G|------------------------------------------0--------------0---------|
D|--4---2-------2-------2-------2-------2-------0------0-------0-----|
A|-------------------------------------------------------------------|
e|--0----------------------------------------------3-----------------|

     Am                              Am7
e|--0-----------------------2-------3---------------0----------------|
B|----------3-------1-----------------------1---------------1--------|
G|--------------2---------------2---------------0---------------0----|
D|------2---------------2---------------2---------------2------------|
A|--0-------------------------------0---------------0----------------|
e|-------------------------------------------------------------------|

     Am                              D/F#
e|--3-------2-------0---------------------------------------2--------|
B|--------------------------1-------3---------------3----------------|
G|--------------2---------------2-----------2-------------------2----|
D|------2---------------2---------------0-------0-------0------------|
A|--0----------------------------------------------------------------|
e|----------------------------------2---------------2----------------|


[Bridge]

     G                               Am7
e|----------0-------2-------3---------------------------------0------|
B|--3-------------------------------1-----------0---0h1--------------|
G|--------------0---------------0-----------0---------------------0--|
D|------0---------------0---------------2-----------------0----------|
A|----------------------------------0---------------0----------------|
e|--3----------------------------------------------------------------|

     C                                D/F#
e|-------------------------------------------3p2---0-------2---------|
B|--1-------0------------------------3-------------------------0-----|
G|--------------0---0h2-------0--------------------------------------|
D|------2-----------------0-------0------0-------------0-------------|
A|--3----------------------------------------------------------------|
e|-----------------------------------2-------------2-----------------|


e|--7------5--------3-------2-------0-------0---0--------------------|
B|--------------------------------------------------3----------------|
G|--------------0---------------0-------------------------------0----|
D|------0---------------0---------------0-------------------0--------|
A|------------------2---------------2-------------------2------------|
e|--7----------------------------------------------------------------|


e|--7-------5---------------5-----------------------5----------------|
B|------------------8---------------5-----------5-----------5--------|
G|--------------5---------------5-----------5-------------------5----|
D|------5---------------5---------------5---------------5------------|
A|--0---------------0---------------0--------------------------------|
e|-------------------------------------------------------------------|

                                     D/F#
e|--7-------5---------------5-----------------------0----------------|
B|------------------8---------------3-----------3-----------3--------|
G|--------------5---------------5-----------2-------------------0----|
D|------5---------------5---------------0---------------0------------|
A|--0---------------0------------------------------------------------|
e|----------------------------------2--------------------------------|

     G
e|--3--------------------------------------------------------0-------|
B|--3-------3-------3-------3-------3--------3---3---3---------------|
G|--------------0---------------0--------------------------------0---|
D|------0---------------2---------------0----------------2-----------|
A|-------------------------------------------------------------------|
e|--3---------------3---------------3----------------3---------------|


e|--------------------------0--------------------------------0-------|
B|----------3-------3---------------3--------3---3---3---------------|
G|--------------0---------------0------------------------------------|
D|------0---------------2---------------0----------------2-----------|
A|-------------------------------------------------------------------|
e|--3---------------3---------------3----------------3---------------|


 [Verse 2]
                 And you love me too...
     G                               Am7
e|----------0-------2-------3---------------------------------0------|
B|--3-------------------------------1-----------0---0h1--------------|
G|--------------0---------------0-----------0---------------------0--|
D|------0---------------0---------------2------------------0---------|
A|----------------------------------0---------------0----------------|
e|--3----------------------------------------------------------------|

                                     G
e|------------------0-------2-----------------------3----------------|
B|--1-------3-----------------------0-----------0--------------------|
G|--------------0---------------0-----------0------------------------|
D|------2---------------2---------------0---------------0-------0----|
A|--0----------------------------------------------------------------|
e|----------------------------------3-----------------------2--------|

     Em                              Am7
e|--------------------------0----------------------------------------|
B|--0-------1-------3---------------1-----------1---0-------1--------|
G|----------------------0-------------------0-------------------0----|
D|--------------2---------------2-------2---------------2------------|
A|------2---------------------------0---------------0----------------|
e|--0----------------------------------------------------------------|

     C                               D/F#
e|----------------------------------3-------2-------0-------2--------|
B|--1-------0--------------------------------------------------------|
G|--------------0---2-------0-------------------2---------------0----|
D|------2---------------0-------0-------0---------------0------------|
A|--3----------------------------------------------------------------|
e|----------------------------------2--------------------------------|

     G                               Am7
e|----------0-------2-------3----------------------------------------|
B|--3-------------------------------1-----------1---0-------1--------|
G|--0-----------0---------------0-----------0-------------------0----|
D|------0---------------0---------------2---------------2------------|
A|----------------------------------0---------------0----------------|
e|--3----------------------------------------------------------------|

                                     G
e|------------------0-------2-----------------------3----------------|
B|--1-------3-----------------------0-----------0--------------------|
G|--------------0---------------0-----------0------------------------|
D|------2---------------2---------------0---------------0-------0----|
A|--0----------------------------------------------------------------|
e|----------------------------------3-----------------------2--------|

     Em                              Am7
e|--------------------------0----------------------------------------|
B|--0-------1-------3---------------1-----------1---0-------1--------|
G|----------------------0-------------------0-------------------0----|
D|--------------2---------------2-------2---------------2------------|
A|------2---------------------------0---------------0----------------|
e|--0----------------------------------------------------------------|

     C               D               G
e|----------------------------------------------------------0--------|
B|--1-------0---------------3-------3-------3-------3----------------|
G|--------------0---2-----------0---0-----------0---------------0----|
D|------2---------------0---------------0---------------2------------|
A|--3----------------------------------------------------------------|
e|------------------2---------------3---------------3----------------|


e|--------------------------0----------------------------------------|
B|--3-------3---3---3------------------------------------------------|
G|-------------------------------0-----------------------------------|
D|------0---------------2--------------------------------------------|
A|-------------------------------------------------------------------|
e|--3---------------3------------------------------------------------|


[Chorus 2]

   And yes I know...
     G
e|--3-------2-------0-------------------------------0-------2--------|
B|--------------------------4-------3-------4------------------------|
G|--------------0---------------0---------------0---------------0----|
D|------0---------------0---------------0---------------0------------|
A|-------------------------------------------------------------------|
e|--3---------------3---------------3---------------3----------------|

     Am                              Am7
e|--3-------2-------0-------2-------3---------------0----------------|
B|------------------------------------------1---------------1--------|
G|--------------2---------------2---------------0---------------0----|
D|------2---------------2---------------2---------------2------------|
A|--0---------------0---------------0---------------0----------------|
e|-------------------------------------------------------------------|

     Am                              Am7/F#
e|--3-------2-------0---------------------------------------2--------|
B|--------------------------1-------------------0---1----------------|
G|--------------2---------------2-----------2-------------------0----|
D|------2---------------2---------------0---------------0------------|
A|--0---------------0------------------------------------------------|
e|----------------------------------2---------------2----------------|

     G
e|-------------------------------------------------------------------|
B|--0-----------0---1-----------1---0-----------0---1-------0--------|
G|--0-------0-------0-------0-------0-------0-------0-------0--------|
D|------0---------------0---------------0---------------0------------|
A|-------------------------------------------------------------------|
e|--3---------------3---------------3---------------3-------3---2----|

     Em
e|----------------------------------0--------------------------------|
B|----------1-------3-------4----------------------------------------|
G|------------------------------------------0--------------0---------|
D|--4---2-------2-------2-------2-------2-------0------0-------0-----|
A|-------------------------------------------------------------------|
e|--0----------------------------------------------3-----------------|

     Am                              Am7
e|--0-----------------------2-------3---------------0----------------|
B|----------3-------1-----------------------1---------------1--------|
G|--------------2---------------2---------------0---------------0----|
D|------2---------------2---------------2---------------2------------|
A|--0-------------------------------0---------------0----------------|
e|-------------------------------------------------------------------|

     Am                              D/F#
e|--3-------2-------0---------------------------------------2--------|
B|--------------------------1-------3---------------3----------------|
G|--------------2---------------2-----------2-------------------2----|
D|------2---------------2---------------0-------0-------0------------|
A|--0----------------------------------------------------------------|
e|----------------------------------2---------------2----------------|


e|--7------5-------3-------2-------0-------0---0---------------------|
B|--------------------------------------------------3-----------3----|
G|-------------0----------------0---------------------------0--------|
D|------0---------------0---------------0----------------------------|
A|-----------------2---------------2-------------------2-------------|
e|--7----------------------------------------------------------------|


[Verse 3]

    And     I       love    you     so...
     G                               Am7
e|----------0-------2-------3---------------------------------0------|
B|--3-------------------------------1-----------0---0h1--------------|
G|--------------0---------------0-----------0---------------------0--|
D|------0---------------0---------------2------------------0---------|
A|----------------------------------0---------------0----------------|
e|--3----------------------------------------------------------------|

                 the people  ask me  how...
                                     G
e|------------------0-------2-----------------------3----------------|
B|--1-------3-----------------------0-----------0--------------------|
G|--------------0---------------0-----------0------------------------|
D|------2---------------2---------------0---------------0-------0----|
A|--0----------------------------------------------------------------|
e|----------------------------------3-----------------------2--------|

     Em                              Am7
e|--------------------------0----------------------------------------|
B|--0-------1-------3---------------1-----------1---0-------1--------|
G|----------------------0-------------------0-------------------0----|
D|--------------2---------------2-------2---------------2------------|
A|------2---------------------------0---------------0----------------|
e|--0----------------------------------------------------------------|

     C                               D
e|----------------------------------------------0---0h2--------------|
B|--1-------0-------------------------------3------------------------|
G|--------------0---2-------0-----------2------------------------0---|
D|------2---------------0-------0---0---------------0--------0-------|
A|--3----------------------------------------------------------------|
e|-------------------------------------------------------2-----------|


e|--7-------5-------3-------2-------0-------0---0--------------------|
B|--------------------------------------------------3----------------|
G|--------------0---------------0-------------------------------0----|
D|------0---------------0---------------0-------------------0--------|
A|------------------2---------------2-------------------2------------|
e|--7----------------------------------------------------------------|

                                Cm           G
e|--5--------3--------0----------3-----------------------------------|
B|--------------------5---------4------------------------------------|
G|--5--------4--------5--------5------------0------------------------|
D|------------------------------------------0------------------------|
A|-------------------(0)--------------------2------------------------|
e|------------------------------------------3------------------------|



************************************

| (n)  Ghost note
| h    Hammer-on
| p    Pull-off

************************************
Suggest correction
comments
print report bad tab
1 comment total.
0 reply
Jhajha_14 11 wrote on February 12 2015, 11:27 pm

2 thumbs up pretty accurate thanks a lot :-) good for real-axation

guest
You may want to rate the tab now too:
select rating
Please do not post tabs as comments. Select "correction" instead!