Oops, an error
Loading. Please wait.
We have Chord Pro version of Vincent.
It's the closest thing you can get to the original song and it has interactive parts. Check out the tab »
×
454 views 6 this week
no commentswrite comment
1 2 3 4 5
3 more votes to show rating
add to favorites
×
Save as Personal and add changes to this tab that will be seen only by you. Learn more ›
×
You can save this tab as Personal to edit and correct it or add notes. All changes will be seen only by you. Learn more »
launch autoscroll
font size
0
reset
how to read this tab
guitar tuner
edit
Autoscroll
slow
fast
+/-
esc
set tempo
stop
Author
Difficulty
About this tab version
Nice version for beginners like me. Was this info helpful? Yes No
[Verse 1]

e|---------------------------------------------------------------------------|
B|---------------------------------------------------------------------------|
G|----0-2-4h--4-2-0---0-2------4-2-0---0-2----------0-----0-2-0-2-4h---------|
D|0-2---------------2-----2h---------2-----2h---0-2---2-0--------------------|
A[---------------------------------------------------------------------------|
E[---------------------------------------------------------------------------|
  Starry starry night, paint your palette blue and grey
  Look out on a summers day,with eyes that know the darkness in my soul
  Shadows on the hills,sketch the trees and daffodils
  Catch the breeze and winter chills, in colours on the snowy linen land


[Chorus]

e[---------------------------------------------------------------------------|
B|---------------------------------------------------------------------------|
G|------0-2-4h--4-2-0---0-2----0-2-4-2-0----0-2---------0---0-2-4h-----------|
D|0-2-0---------------2-----2h------------2-----2h--0-2---2------------------|
A|---------------------------------------------------------------------------|
E|---------------------------------------------------------------------------|
  And now I understand what you tried to say to me
  How you suffered for your sanity, how you tried to set them free
  They would not listen,they did not know how, perhaps they'll listen now 
e|---------------------------------------------------------------------------|
B|---------------------------------------------------------------------------|
G|-0-2-0--------0-2-0-------0-2-0--------------------------------------------|
D[-------2-0-0-2------0-2-0--------------------------------------------------|
A|---------------------------------------------------------------------------|
E|---------------------------------------------------------------------------]
 

[Verse 2]

  Starry starry night, flaming flowers that brightly blaze
  Swirling clouds in violet haze, reflecting Vincent's eyes of China blue
  Colours changing hue, morning fields of amber grain
  Weathered faces lined with pain are soothed beneath the artists loving hand

 
[Chorus]

e[---------------------------------------------------------------------------|
B|---------------------------------------------------------------------------|
G|------0-2-4h--4-2-0---0-2----0-2-4-2-0----0-2---------0---0-2-4h-----------|
D|0-2-0---------------2-----2h------------2-----2h--0-2---2------------------|
A|---------------------------------------------------------------------------|
E|---------------------------------------------------------------------------|
  And now I understand what you tried to say to me
  How you suffered for your sanity, how you tried to set them free
  They would not listen,they did not know how, perhaps they'll listen now 
e|---------------------------------------------------------------------------|
B|---------------------------------------------------------------------------|
G|-0-2-0--------0-2-0-------0-2-0--------------------------------------------|
D[-------2-0-0-2------0-2-0--------------------------------------------------|
A|---------------------------------------------------------------------------|
E|---------------------------------------------------------------------------]
 

[Bridge]
e|---------------------------------------------------------------------------|
B|---------------------------------------------------------------------------|
G|-----0-2-4-0-----0-2-0-4h--0-2-0-4-2-0---2--0-2-4-2-0-2-4h-----------------|
D|-0-2 --------0-2-----------------------2-----------------------------------|
A|---------------------------------------------------------------------------|
E|---------------------------------------------------------------------------|
   
e|---------------------------------------------------------------------------|
B|---------------------------------------------------------------------------|
G|-2-4-2-0-------0-2-4-----0-2-2-0---0-2-4-2-0-------0-2-4-2-0---0-----------|
D|---------2-0-2-------0-2---------2-----------2-0-2-----------2-------------|
A|---------------------------------------------------------------------------|
E|---------------------------------------------------------------------------|
 
  For they could not love you, but still your love was true
  And when no hope was left in sight on that starry starry night
  You took your life as lovers sometimes do
  But I could have told you Vincent
  This world was never meant for one as beautiful as you

  
[Verse 3]

  Starry starry night, portraits hung in empty halls
  Fearless heads on nameless walls
  With eyes that watch the world and can't forget
  Like the strangers that you've met,the ragged men in ragged clothes
  The silver thorn of bloody rose lie crushed and broken on the virgin snow


[Chorus]

  And now I understand what you tried to say to me
  How you suffered for your sanity, how you tried to set them free
  They would not listen, they're not listening still
  Perhaps they never will.



************************************

| h  Hammer-on

************************************

            
            
Suggest correction
Creating personal tab
Creating personal tab
You can edit any tab online and save it as your Personal.

You can edit, replace or remove any tab part or add personal notes – all changes will be seen only by you.

Personal tabs can be accessed anytime from any device, even offline.
Learn more »
Give kudos to tab author, rate the tab!
1 2 3 4 5
comments
print report bad tab
guest
You may want to rate the tab now too:
select rating
Wanna post a correction for this tab? Suggest correction