Oops, an error
Loading. Please wait.

Arise Tab

7,319 views 27 this week
no commentswrite comment
1 2 3 4 5
excellent!
x 1
add to favorites
launch autoscroll
font size
0
reset
how to read this tab
guitar tuner
Tab Pro tools
  • play this tab
  • loop segment
  • change instrument
  • show fretboard
  • metronome
×
Best way to learn
"Arise"
Autoscroll
slow
fast
+/-
esc
set tempo
stop
Contributor
Arise
By: Don Moen

Transcribed by: Dave Javier

E
Arise…
B
Arise…
E
Arise…
A2
Arise…
E
Arise…
            B          C#m            A2
Take your place be Enthroned on our Praise


Guitar 1: (Muted, Light Dist. w/ Delay)
E||-------2-------2---||
B||-----5---5---5-----||
G||---4-------4-------||
D||-------------------||
A||-------------------||
E||-------------------||

Guitar 2:
E||--------------------------------------||
B||---------------/16-17-----------------||
G||--------------------------------------||
D||---16-14-13-------------16-14-13------||
A||------------16-------------------16---||
E||--------------------------------------||

Verse:
Guitar 1: 
E||-------2-------2---||
B||-----5---5---5-----||
G||---4-------4-------|| (3x)
D||-------------------||
A||-------------------||
E||-------------------||

On the 4th
E||-------0-------0---||
B||-----5---5---5-----||
G||---4-------4-------|| 
D||-------------------||
A||-------------------||
E||-------------------||

Guitar 2: Chords
E            B
One thing we ask of you
D             A2
One thing that we desire
E          B
That as we worship you
D              A2
Lord Come and Change Our Lives


Refrain:
     E      B      E     A2      E
Arise, Arise, Arise, Arise, Arise


Chorus:
            B          C#m            A
Take your place be Enthroned on our praise
    E         B          C#m
Arise King of Kings Holy God
      A       
As We sing,
     E – B – C#m - A
Arise

E||---16-17--19-------------------||
B||--------------16-17--19---17~--||
G||-------------------------------|| 
D||-------------------------------||
A||-------------------------------||
E||-------------------------------||

Bridge:
E
We Lift You Up (3x)
         D
On Our Praise
E
We Lift You Up (3x)
         D
On Our Praise

E
We Lift You Up^ (3x)
          D
On Our Praise
E
We Lift You Up^ (3x)
          A~
On Our Praise


Chorus: 
 F           C          Dm            Bb
Arise, Take your place be Enthroned on our Praise
    F         C          Dm
Arise King of Kings Holy God
      Bb       
As we sing,
     F – C – Dm - Bb
Arise

E||---17-18--20-------------------||
B||--------------17-18--20---18~--||
G||-------------------------------|| 
D||-------------------------------||
A||-------------------------------||
E||-------------------------------||

F


=======================================================================
Comments/Suggestion?..
dave_javier17@yahoo.com

Thanks..

God Bless...
comments
We did not receive enough feedback on this tab! Please rate:
print report bad tab
1 2 3 4 5
I want to post or [tab]
guest
You may want to rate the tab now too:
select rating
Please do not post tabs as comments. Select "correction" instead!