Oops, an error
Loading. Please wait.

Hallelujah To The Lamb Bass Tab

3,381 views 1 this week
no commentswrite comment
1 2 3 4 5
please rate
add to favorites
launch autoscroll
font size
0
reset
guitar tuner
Autoscroll
slow
fast
+/-
esc
set tempo
stop
Help us to improve Ultimate-Guitar.com Take our survey!
×
Author
HALLELUJAH TO THE LAMB
Don Moen
BASSLINE:
Tuning: Drop-D
Transcribed by super_rayfox@yahoo.com…not accurate but it can be used as a reference…
Thanks to the BAHRAIN FATHER’S HOUSE PRAISE AND WORSHIP TEAM….

VERSE 1:
|--------------------------------------------------------------|
|--------------------------------------------------------------|
|--------------------------------------------------------------|
|--------------------------------------------------------------|
 Lord I stand in the midst of a multitude, of those
     From every tribe and tongue
We are Your people redeemed by Your blood, rescue from
	Death by Your love 

|--------------------------------------------------------------|
|------------------------------------------5---7---------------|
|-----------------------------------5---7----------------------|
|---------------5------------5---7-----------------------------|
 There are no words good enough to thank You

|--------------------------------------------------------------|
|--------------------------------------------------------------|
|--------------------------------------------------3---3---3---|
|-------------3--------4-------2---2----0----------------------|
 There are no words to express my praise, But when I lift up

|--------------------------------------------------------------|
|--------------------------------------------------------------|
|----3-------2---2---2---2-------------0--0--2--3--0--5--5--5--|
|--------------------------------------------------------------|
  my voice and sing from the heart with all of my strength

CHORUS:
|--------------------------------------------------------------|
|--------------------------------------------------------------|
|-----------2-2-2-3-3-3-7-7-7-7-5-5-5-5------------------------|
|--5--5--5------------------------------5-5-5------------------|
  Hallelujah, Hallelujah, hallelujah to the Lamb

|--------------------------------------------------------------|
|--------------------------------------------------------------|
|--2---2---2---3---3---3---0---5---5---5---5-------------------|
|--------------------------------------------------------------|
 Hallelujah, Hallelujah by the Blood of Christ we stand

|--------------------------------------------------------------|
|--------------------------------------------------------------|
|-------------2---2---2---3---3---3---5---5--5—--5-------------|
|--5---5---5---------------------------------------------------|
 Every tongue, every tribe, every people, every land

|--------------------------------------------------------------|
|--------------------------------------------------------------|
|---10--10---9---7---------------------------------------------|
|-------------------12---10---9---12---10---------12-------5---|
 Giving glory, giving honor, giving praise into the Lamb of God
VERSE 2: FEMALE
|--------------------------------------------------------------|
|--------------------------------------------------------------|
|--------------------------------------------------------------|
|--5------5----------------------(5)---------------------------|
 Lord we stand by grace in Your presence

|--------------------------------------------------------------|
|--------------------------------------------------------------|
|--------------------------------------------------------------|
|--0h5----5-------4----2-------0-------------------------------|
 cleansed by the Blood of the Lamb

|--------------------------------------------------------------|
|--------------------------------------------------------------|
|------------3--------3------2-------0-------------------------|
|--------------------------------------------------------------|
 We are Your children called by Your Name

|--------------------------------------------------------------|
|--------------------------------------------------------------|
|--3----3------------5----0----3----6--------------------------|
|--------------------------------------------------------------|
 Humbly we bow and we pray

VERSE 3: MALE
|--------------------------------------------------------------|
|--------------------------------------------------------------|
|----------------6--------------------6------------------------|
|--6--------6----------6-------6-------------------------------|
 Release Your Power to us and through us

|--------------------------------------------------------------|
|--------------------------------------------------------------|
|--------------------------------------------------------------|
|---6-------6--------5----5------3----3---1----1---------------|
 ‘Til we are changed to be more like You

|--------------------------------------------------------------|
|--------------------------------------------------------------|
|-----------4---4---4---4----6----3---3---3---3--8---8---8---8-|
|--------------------------------------------------------------|
 Then all the nations will see, Your glory revealed

|--------------------------------------------------------------|
|--------------------------------------------------------------|
|--1---1---1---1---3---4---1---6---6---6---6-------------------|
|--------------------------------------------------------------|
 and worship You

CHORUS 2:
|--------------------------------------------------------------|
|--------------------------------------------------------------|
|-------------3---3---3---4--4---4---4----8\6------------------|
|-6---6---6----------------------------------------------------|
  Hallelujah, Hallelujah, hallelujah to the Lamb

|--------------------------------------------------------------|
|--------------------------------------------------------------|
|---------------3---3---3--—3/6---4---4---4—--1/6--------------|
|--6---6---6/8-------------------------------------------------|
 Hallelujah, Hallelujah by the Blood of Christ we stand



|--------------------------------------------------------------|
|--------------------------------------------------------------|
|--------------3---3---3----4---4---4---1/6--------------------|
|--6---6---6---------------------------------------------------|
 Every tongue, every tribe, every people, every land


|--------------------------------------------------------------|
|--------------------------------------------------------------|
|--------------6---4---3---3---3---3/6---4---4---6-------------|
|--6---6---6----------------------------------------------6----|
 Giving glory, giving honor, giving praise into the Lamb of God


REFRAIN:
|--------------------------------------------------------------|
|--------------------------------------------------------------|
|------------2------------------------2------------1/3/4-6-6--6|
|-2--2--2--2---4--4--4--4--2--2--2--2---4--4--4--4-------------|
Every knee shall bow, every tongue confess the You are Lord of all

REPEAT CHORUS:
OUTRO:
|--------------------------------------------------------------|
|--------------------------------------------------------------|
|---------------4---4---4---4---6---6---6---6------------------|
|--6--5--3--1----------------------------------6---6---3---3---|
            God, giving praise unto the Lamb of God 


|--------------------------------------------------------------|
|--------------------------------------------------------------|
|--4---4---4---4----6---6---6-----7----------------------------|
|--------------------------------------------------------------|
 Giving praise unto the Lamb of God


|--------------------------------------------------------------|
|--------------------------------------------------------------|
|--(7)---9----(9)----------------------------------------------|
|-------------------6---6---6---6---6---6---6---6--------------|
 Jesus Christ Lamb of God
Suggest correction
Give kudos to tab author, rate the tab!
1 2 3 4 5
comments
print report bad tab
guest
You may want to rate the tab now too:
select rating
Please do not post tabs as comments. Select "correction" instead!