Oops, an error
Loading. Please wait.

Adios Bass Tab

version 1
version 1

Whole song

Interactive

894 views 1 this week
no commentswrite comment
1 2 3 4 5
please rate
add to favorites
launch autoscroll
font size
0
reset
guitar tuner
Autoscroll
slow
fast
+/-
esc
set tempo
stop
Help us to improve Ultimate-Guitar.com Take our survey!
×
Contributor
Difficulty
Tuning
kassnarok 310
novice
D A D G B E
Intro

             W                   W                   W
G||-------|-------------------|-------------------|-------------------|
D||-------|-------------------|-------------------|-------------------|
A||-------|--0----------------|--2----------------|--5----------------|
D||-------|-------------------|-------------------|-------------------|


            W
G||-------|-------------------|
D||-------|-------------------| X2
A||-------|--7----------------|
D||-------|-------------------|

Verse (Las L son mantener la nota)

  W                   H        Q    E  E     H        Q    E  E
-------------------|----------------------|----------------------|
-------------------|----------------------|----------------------|
--7----------------|--0--------L----L--0--|--2--------L----L--2--|
-------------------|----------------------|----------------------|


  H        Q    E  E     W
----------------------|-------------------|
----------------------|-------------------| x4 (El final cambia por
--5--------L----L--5--|--7----------------| lo siguiente)
----------------------|-------------------|

   E  E  E  E  E  E  E  E
|--------------------------|
|--------------------------|
|--5--5--5--5--5--5--5--5--|

Coro

  E  E  E  E  E  E  E  E     E  E  E  E  E  E  E  E
--------------------------|--------------------------|
--------------------------|--------------------------|
--------------------------|--------------------------|
--7--7--7--7--7--7--7--7--|--7--7--7--7--7--7--7--7--|


  E  E  E  E  E  E  E  E     E  E  E  E  E  E  E  E
--------------------------|--------------------------|
--------------------------|--------------------------|
--------------------------|--------------------------| X3
--4--4--4--4--4--4--4--4--|--4--4--4--4--4--4--4--4--|

  E  E  E  E  E  E  E  E
--------------------------|
--------------------------|
--------------------------|
--2--2--2--2--2--2--2--2--|


  E  E  E  E  E  E  E  E     W                   W
--------------------------|-------------------|-------------------|
--------------------------|-------------------|-------------------|
--------------------------|-------------------|-------------------|
--2--2--2--2--2--2--2--2--|--0----------------|--L----------------|

Pre Coro -> Mismo Riff de la intro

Solo

  E  E  E  E  E  E  E  E
--------------------------|--------------------------|
--------------------------|--------------------------|
--------------------------|--------------------------|
--7--7--7--7--7--7--7--7--|--7--7--7--7--7--7--7--7--|


  E  E  E  E  E  E  E  E     E  E  E  E  E  E  E  E
--------------------------|--------------------------|
--------------------------|--------------------------|
--------------------------|--------------------------|
--6--6--6--6--6--6--6--6--|--6--6--6--6--6--6--6--6--|


  E  E  E  E  E  E  E  E     E  E  E  E  E  E  E  E
--------------------------|--------------------------|
--------------------------|--------------------------|
--------------------------|--------------------------|
--4--4--4--4--4--4--4--4--|--4--4--4--4--4--4--4--4--|


  E  E  E  E  E  E  E  E     E  E  E  E  E  E  E  E
--------------------------|--------------------------|
--------------------------|--------------------------|
--------------------------|--------------------------|
--7--7--7--7--7--7--7--7--|--7--7--7--7--7--7--7--7--|

En el ultimo coro hay un silencio, en que se cambian las 4 ultimas corcheas de la 3 
por 4 corcheas muertas (--X--X--X--X--)

Duracion
---------------
W - Redonda
H - Blanca
Q - Negra
E - Corchea

Tablature Legend
----------------
L - Nota Sostenida
x - Nota Muerta
comments
We did not receive enough feedback on this tab! Please rate:
print report bad tab
1 2 3 4 5
I want to post or [tab]
guest
You may want to rate the tab now too:
select rating
Please do not post tabs as comments. Select "correction" instead!