Oops, an error
Loading. Please wait.

Adios Tab

version 2
version 2

Whole song

Interactive

2,406 views 1 this week
no commentswrite comment
1 2 3 4 5
3 more votes to show rating
add to favorites
launch autoscroll
font size
0
reset
how to read this tab
guitar tuner
Autoscroll
slow
fast
+/-
esc
set tempo
stop
Help us to improve Ultimate-Guitar.com Take our survey!
×
Difficulty
intermediate
Mi primer tab
pero esta muy bien requeterevisado
ARRIBA DON TETTo


Guitarra Rítmica: Diego Pulecio
Guitarra Líder: Carlos Leon Gómez

INTRO x2
e|---------------------------------------------------------------|
b|----2------2-------2-------2-------2-------2-------------------|
G|--2---2--2---2---2---2---2---2---2---2---2---2—3p2p0-3p2p0-3p2-|
D|-------------------------------0-------0-----------------------|
A|-0-----0-------2-------2---------------------------------------|
E|---------------------------------------------------------------|
VERSO1
e|---------------------------------------------------------------|
b|----2------2-------2-------2-------2-------2-------------------|
G|--2---2--2---2---2---2---2---2---2---2---2---2—3p2p0-3p2p0-3p2-|
D|-------------------------------0-------0-----------------------|
A|-0-----0-------2-------2---------------------------------------|
E|---------------------------------------------------------------|
No he dejado de extrañarte, en mi mente siempre estas

e|---------------------------------------------------------------|
b|----2------2-------2-------2-------3---2---3-------------------|
G|--2---2--2---2---2---2---2---2---2---2---2----—3p2p0-3p2p0-3p2-|
D|-------------------------------0-------------------------------|
A|-0-----0-------2-------4---------------------------------------|
E|---------------------------------------------------------------|
Es inutil olvidarte, sin ti ya nada es igual
e|---------------------------------------------------------------|
b|----2------2-------2-------2-------2-------2-------------------|
G|--2---2--2---2---2---2---2---2---2---2---2---2—3p2p0-3p2p0-3p2-|
D|-------------------------------0-------0-----------------------|
A|-0-----0-------2-------2---------------------------------------|
E|---------------------------------------------------------------|
Y el vacio en mi interior, solo crece absorbiendo el dolor
e|---------------------------------------------------12*---------|
b|----2------2-------2-------2-------3---2---3-------------------|
G|--2---2--2---2---2---2---2---2---2---2---2----—----------------|
D|-------------------------------0-------------------------------|
A|-0-----0-------2-------4---------------------------------------|
E|---------------------------------------------------------------|
Como el de decir adioooos
PRIMER CORO
Hoy vas con rumbo hacia ningun lugar/// Y te puedo encontrar
Brillando en el cielo cuando el sol no esta //En noches sin final
Me pierdo, y //el tiempo que pasa en silencio
1.1Guitarra rítmica
e|----------------------------------------------------------------|
b|----------------------------------------------------------------|
G|----------------------------------------------------------------|
D|--7----7----7----7------------4----4----4----4--------------x3--|
A|--7----7----7----7------------4----4----4----4------------------|
E|--5----5----5----5------------2----2----2----2------------------|
2.1Guitarra líder
e|----------------------------------------------------------------|
b|----------------------------------------------------------------|
G|-----------------------------11-11-11-11-11-11/13-13--13-14-----|
D|--7----7----7----7-----------------------------------------x2---|
A|--7----7----7----7-----------9--9--9--9--9—-9/11--11--11-12-----|
E|--5----5----5----5----------------------------------------------|


2.1.2Guitarra líder
e|----------------------------------------------------------------|
b|----------------------------------------------------------------|
G|----------------------------------------------------------------|
D|--7----7----7----7------------4----4----4----4------------------|
A|--7----7----7----7------------4----4----4----4------------------|
E|--5----5----5----5------------2----2----2----2------------------|

 Me recuerda que soy yo quien muere
1.2Guitarra rítmica
e|----------------------------------------------------------------|
b|----------------------------------------------------------------|
G|----------------------------------------------------------------|
D|--2----2----2----2----------------0~~~--------------------------|
A|--2----2----2----2----------------0~~~--------------------------|
E|--0----0----0----0----------------D(0)re caído------------------|
 Al momento en que te vas (let ring the last D)

OUTRO
Gui1
e|---------------------------------------------------------------|
b|----2------2-------2-------2-------2-------2-------------------|
G|--2---2--2---2---2---2---2---2---2---2---2---2—3p2p0-3p2p0-3p2-|
D|-------------------------------0-------0-----------------------|
A|-0-----0-------2-------2---------------------------------------|
E|---------------------------------------------------------------|
Gui2
e|---------------------------------------------------------------|
b|--2h3p2h3p2h3p2h3p2~------------2h3p2h3p2h3p2h3p2~-------------|
G|---------------------------------------------------------------|

VERSO2
Gui1
e|---------------------------------------------------------------|
b|----2------2-----------------------2--------2------------------|
G|--2-2-2--2-2-2-------------------2-2-2----2-2-2—---------------|
D|-------------------------------0---------0--------2~-----------|
A|-0------0-------2~---------------------------------------------|
E|---------------------------------------------------------------|
Gui2
e|---------------------------------------------------------------|
b|----2------2-------2-------2-------2-------2-------------------|
G|--2---2--2---2---2---2---2---2---2---2---2---2—3p2p0-3p2p0-3p2-|
D|-------------------------------0-------0-----------------------|
A|-0-----0-------2-------2---------------------------------------|
E|---------------------------------------------------------------|
Y tengo que confesar que extraño tu forma de hablar

Gui1
e|---------------------------------------------------------------|
b|----2------2---------------------------------------------------|
G|--2-2-2--2-2-2-------------------------------------------------|
D|---------------------------------------------------------------|
A|-0------0-------2~-----4~------5~------------7~----------------|
E|---------------------------------------------------------------|
Gui2
e|---------------------------------------------------------------|
b|----2------2-------2-------2-------3---2---3-------------------|
G|--2---2--2---2---2---2---2---2---2---2---2----—3p2p0-3p2p0-3p2-|
D|-------------------------------0-------------------------------|
A|-0-----0-------2-------4---------------------------------------|
E|---------------------------------------------------------------|
Que las noches son mas frias en la cruda soledad

Gui1
e|---------------------------------------------------------------|
b|----2------2-----------------------2--------2------------------|
G|--2-2-2--2-2-2-------------------2-2-2----2-2-2—---------------|
D|-------------------------------0---------0---------2~----------|
A|-0------0-------2~---------------------------------------------|
E|---------------------------------------------------------------|
Gui2
e|---------------------------------------------------------------|
b|----2------2-------2-------2-------2-------2-------------------|
G|--2---2--2---2---2---2---2---2---2---2---2---2—3p2p0-3p2p0-3p2-|
D|-------------------------------0-------0-----------------------|
A|-0-----0-------2-------2---------------------------------------|
E|---------------------------------------------------------------|
Que tu ausencia me envenena el alma, duele respirar

Gui1
e|---------------------------------------------------------------|
b|----2------2---------------------------------------------------|
G|--2-2-2--2-2-2-------------------------------------------------|
D|---------------------------------------------------------------|
A|-0------0-------2~-----4~------5~--------------7~--------------|
E|---------------------------------------------------------------|
Gui2
e|---------------------------------------------------------------|
b|----2------2-------2-------2-------3---2---3-------------------|
G|--2---2--2---2---2---2---2---2---2---2---2----—7~--------------|
D|-------------------------------0-------------------------------|
A|-0-----0-------2-------4---------------------------------------|
E|---------------------------------------------------------------|
Sabiendo que ya no estas..

SEGUNDO CORO
Hoy vas con rumbo hacia ningun lugar Y te puedo encontrar
Brillando en el cielo cuando el sol no esta En noches sin final
Me pierdo, y el tiempo que pasa en silencio
1.1Guitarra rítmica
G|----------------------------------------------------------------|
D|--7----7----7----7------------4----4----4----4--------------x3--|
A|--7----7----7----7------------4----4----4----4------------------|
E|--5----5----5----5------------2----2----2----2------------------|
2.1Guitarra líder
b|----------------------------------------------------------------|
G|-----------------------------11-11-11-11-11-11/13-13--13-14-----|
D|--7----7----7----7-----------------------------------------x2---|
A|--7----7----7----7-----------9--9--9--9--9—-9/11--11--11-12-----|
E|--5----5----5----5----------------------------------------------|
2.1.2Guitarra líder
G|----------------------------------------------------------------|
D|--7----7----7----7------------4----4----4----4------------------|
A|--7----7----7----7------------4----4----4----4------------------|
E|--5----5----5----5------------2----2----2----2------------------|

 Me recuerda que soy yo quien muere
1.2Guitarra rítmica
G|----------------------------------------------------------------|
D|--2----2----2----2----------------0~~~--------------------------|
A|--2----2----2----2----------------0~~~---------x8(fast strum)---|
E|--0----0----0----0----------------D(0)re caído------------------|

 Al momento en que te vas (let ring the last D)

SOLO
e|--12--12--12--12--14--14--12--12--12--12--12--12--14--14--12--12--|
b|----10--10--10--10--10--10--10--10--9---9---9---9---9---9---9---9-|

e|10--10--10--10--12--12--10--10-------------------------10-12-14~--|
b|--7---7---7---7---7---7---7---7---10b~10b~10b~10b-12~12~----------|

REPETIR PRIMER CORO

OUTRO
Gui1
e|---------------------------------------------------------------|
b|----2------2-------2-------2-------2-------2-------------------|
G|--2---2--2---2---2---2---2---2---2---2---2---2—3p2p0-3p2p0-----|
D|-------------------------------0-------0-----------------------|
A|-0-----0-------2-------2---------------------------------------|
E|---------------------------------------------------------------|
Gui2
e|---------------------------------------------------------------|
b|--2h3p2h3p2h3p2h3p2~---------------2h3p2h3p2h3p2h3p2~----------|
G|---------------------------------------------------------------|

Fin
e|-----0~-----|
b|-----2~-----|
G|-----2~-----|
D|-----2~-----|
A|-----0~-----|
E|------------|
Suggest correction
Give kudos to tab author, rate the tab!
1 2 3 4 5
comments
print report bad tab
guest
You may want to rate the tab now too:
select rating
Wanna post a correction for this tab? Suggest correction