Oops, an error
Loading. Please wait.

Fallido Intento Bass Tab

version 1
version 1

Whole song

Interactive

976 views 1 this week
no commentswrite comment
1 2 3 4 5
please rate
add to favorites
launch autoscroll
font size
0
reset
guitar tuner
Tab Pro tools
  • play this tab
  • loop segment
  • change instrument
  • show fretboard
  • metronome
Autoscroll
slow
fast
+/-
esc
set tempo
stop
Contributor
Difficulty
intermediate
Tabbed: AboutLuuiis
E-mail: dookie-22@hotmail.com
Youtube Account: www.youtube.com/aboutLuuiis

Song: Fallido Intento
Banda: Don Tetto
Tuning: Standard

Intro (After Guitar)
G|---------------------------------------------------------|
D|---------------------------------------------------------|
A|---55/1010-7557---55/10-777775---55/1010-7557---55/10x---|
E|-77-------------77-------------77-------------77---------|

Verse 1 (Get Rhythm)x2
G|-------------------------------------------|
D|--------------55554------------------------|
A|-22222222----------555555555-0000-750-750--|
E|----------3333-----------------------------|

Pre-Chorus 1
G|------------------|
D|------------------|
A|------------------|
E|-33333333-5555555-|

Chorus 1 x2
G|------------------------------------------|
D|----------777777797-----------------------|
A|-555555557----------------000551010121212-|
E|-------------------333-333----------------|

Pre-Verse
G|--------------------------|
D|--------------------------|
A|---55/1010-7557---55/10x--|
E|-77-------------77--------|

Verse 2
G|-----------------------------------------------|
D|--997--99997--554--55554-----------------------|
A|-----9------9----5------555555555-0000-750-750-|
E|-7----7------3----3----------------------------|

G|-------------------------------------------|
D|--------------55554------------------------|
A|-22222222----------555555555-0000-750-750--|
E|----------3333-----------------------------|

Pre-Chorus 2
G|------------------|
D|------------------|
A|------------------|
E|-33333333-5555555-|

Chorus 2 x2
G|------------------------------------------|
D|----------777777797-----------------------|
A|-555555557----------------000551010121212-|
E|-------------------333-333----------------|

Guitar Solo
G|--------------------------------------------|
D|--------------------------------------------|
A|-22222222----------55555555-750-750-750-750-|
E|----------33333333--------------------------|

G|--------------------------------------|
D|--------------55554---------777779797-|
A|-22222222----------555555555----------|
E|----------3333------------------------|

Bridge
G|----------------------------------|
D|----------------------------------|
A|-2~------5~-----2~-----12109-1097-|
E|----------------------------------|

G|-----------------------------------------|
D|-----------------------------------------|
A|-22222222----------55555555-000099775544-|
E|----------33333333-----------------------|

G|--------------------------------------|
D|----------------------------777777777-|
A|-22222222----------55555555-----------|
E|----------33333333--------------------|

Pre-Chorus 3
G|---------------------------------------|
D|---------------------------------------|
A|---------------------------------------|
E|-33333333-555555575-33333333-5555555~--|

-(Rest One Time)-

BreakDown-Chorus
G|-------------------------------------------|
D|------------------------------------777777-|
A|-5555-5555-0000-0000-----------------------|
E|--------------------3333-3333-5555-5-------|

Chorus 3
G|------------------------------------------|
D|----------777777797-----------------------|
A|-555555557----------------000551010121212-|
E|-------------------333-333----------------|

G|-----------------------------------------------------------|
D|-------------------------------------55555-----------------|
A|-55555555-101212121212121212-10101010-----000551010121212--|
E|-----------------------------------------------------------|

G|-----------------------------------------------------------|
D|-------------------------------------55555-7x--------------|
A|-55555555-101212121212121212-10101010----------------------|
E|-----------------------------------------------------------|

G|------|
D|------|
A|-5555-
E|------
comments
We did not receive enough feedback on this tab! Please rate:
print report bad tab
1 2 3 4 5
I want to post or [tab]
guest
You may want to rate the tab now too:
select rating
Please do not post tabs as comments. Select "correction" instead!