Oops, an error
Loading. Please wait.

No Digas Lo Siento Tab

version 1
version 1

Whole song

Interactive

8,909 views 3 this week
no commentswrite comment
1 2 3 4 5
3 more votes to show rating
add to favorites
launch autoscroll
font size
0
reset
how to read this tab
guitar tuner
Autoscroll
slow
fast
+/-
esc
set tempo
stop
Help us to improve Ultimate-Guitar.com Take our survey!
×
Difficulty
novice
No digas lo siento
Intro
e |---------------------------------------------------------------|
B |---------------------------------------------------------------|
G |-10//11-11-11-15-15-11-11-11-11--18-18-18-18-11-11-11-8--------|
D |--x---x--x--x--x--x--x--x--x--x---x--x--x--x--x--x--x-x--------|
A |--8// 9--9--9-13-13--9--9--9--9--16-16-16-16--9--9--9-6--------|
E |---------------------------------------------------------------|

e |----------|
B |----------|
G |----------|(16x)
D |------11--|
A |----9-----|
E |--9-------|

e |---------------------------|
B |---------------------------|
G |-11------10--x--11---------|
D |-11-(4x)-11--x--11---------|
A |--9-------9--x---9---------|
E |---------------------------|

e |------------------------|
B |------------------------|
G |------------------------|
D |-9---11--8--4--9--------|
A |-9---11--8--4--9--11----|
E |-7----9--6--2--7---9----|

Coro
e |---------------------------|
B |---------------------------|
G |-11------------------------|
D |-11-(4x)-------------------|
A |--9------------------------|
E |---------------------------|
Intro
e |---------------------------|
B |---------------------------|
G |-11------10--x--11---------|
D |-11-(4x)-11--x--11---------|
A |--9-------9--x---9---------|
E |---------------------------|

e |------------------------|
B |------------------------|
G |------------------------|
D |-9---11--8--4--9--------|
A |-9---11--8--4--9--11----|
E |-7----9--6--2--7---9----|

Coro
viene el solo.....

Suggest correction
Give kudos to tab author, rate the tab!
1 2 3 4 5
comments
print report bad tab
guest
You may want to rate the tab now too:
select rating
Wanna post a correction for this tab? Suggest correction