Oops, an error
Loading. Please wait.

Florida Room Tab

22 views 1 this week
no commentswrite comment
1 2 3 4 5
2 more votes to show rating
add to favorites
launch autoscroll
font size
0
reset
how to read this tab
guitar tuner
Autoscroll
slow
fast
+/-
esc
set tempo
stop
Help us to improve Ultimate-Guitar.com Take our survey!
×
Author
[Intro]

e|--------------------------------0----0---0h5--------0---0----------------------------------------|
B|------0---3---2---0------0-----3-----5------7-------5----0-----------0------0-------0--0---------|
G|------4---2---2---2-----2-----4------7-------7------6-----6---------4------3-------7----6--------|
D|------4---0---0---2----0-----0-------7--------0-0---7------7-------4------4-------7------7-------|
A|-----2----------------2-----4-------0----------0---0--------0-----2------x-------5---------------|
E|----0----------------0-----0-------------------------------------0-------2------0---------5------|

e|-------------------------------------0---0h5--------0---0--------------------------------------------|
B|------0---3---2---0------0-----3-----5------7-------5----0-------------------------------------------|
G|------4---2---2---2-----2-----4------7-------7------6-----6---------4-3---------5-4---------7-6------|
D|------4---0---0---2----0-----0-------7--------0-0---7------7-------4-4-4-------5-5-5-------7-5-7-----|
A|-----2----------------2-----4-------0----------0---0--------0-----2-----2-----3-----3-----5-----5----|
E|----0----------------0-----0-------------------------------------0-------0---0-------0---0-------0---|


e|--------------------------------------------------------------|
B|------0----3----3----3------0----3----3----3------------------|
G|------5----0----0----0------5----0----0----0------------------
D|------5----4----2----0------5----4----2----0------------------|
A|-----3-----3----3----3-----3-----3----3----3------------------|
E|----0---------------------0-----------------------------------|

CHORUS

          When  the  cold  wind  blows       I  go   where   the  dahlias   bloom

     G2              C2                                           G6+2
     
e|----0--------------0-----------0-----2---0-----------------------------------------------------|
B|----3--------------3-----------3-----3---3----------------------3------3---------0----0--------|
G|----2--------------2-----------0-----0---0----------------------4------2---------3----3--------|
D|----0--------------0-----------0-----0---0----------------------0------0---------4----0--------|
A|---0---------------3-----------3-----3---3----------------------0------0---------0----0--------|
E|--3-------------------------------------------------------------3------3---------3----3--------|


      I keep drifting back        to your Florida     room
              
             Csus2               Bb6+2      Am7       G2

e|------------3--------------------1---------0---------3-----------------------------------|
B|------------3--------------------1---------1---------0-----------------------------------|
G|------------0--------------------0---------0---------2-----------------------------------|
D|------------0--------------------0---------2---------0-----------------------------------|
A|------------3--------------------1---------0---------0-----------------------------------|
E|-------------------------------------------0---------3-----------------------------------|


Verses 1 and 2

   Start on Key Plantain   walk a tropical mile   You'll see a house     in a Spanish style

             GMaj                          Em9#5     FMaj        F9sus4/C             G2

e|------------0-------------------------------0---------0-------------3----------------3----|
B|------------3------------3-----------------3----------1-------------4----------------0----|
G|------------4------------2----------------0-----------2-------------3----------------2----|
D|------------4------------0---------------4------------2-------------3----------------0----|
A|------------0------------0--------------3-------------0-------------3----------------0----|
E|------------3------------3-------------0--------------1-------------x----------------3----|


    there's a room in back      with a view of the sea  where she sits and waits     does she dream of me

                GMaj                            Fm9#5            FMaj         F9sus4/C                G2

e|---------------0---------------------------------0--------------0--------------3--------------------3------|
B|---------------3----------3---------------------3---------------1--------------4--------------------0------|
G|---------------4----------2--------------------0----------------2--------------3--------------------2------|
D|---------------4----------0-------------------4-----------------2--------------3--------------------0------|
A|---------------0----------0------------------3------------------0--------------3--------------------0------|
E|---------------3---------33-----------------0-------------------1--------------x--------------------3------|


   Pre-Chorus 1 and 2

    When summer's gone I get ready         to take that Caribee run         I got to have my time in the sun


        Asus2              A+9              GMaj9+6   F#m7     Bm11  Am7    CMaj7   Fm9#5     C+9     CMaj2

A|--------0--------0---------0------0---------2--------0--------0----0-------0---------0-------0--------0----|
B|--------5--------4---------2------0---------3--------2--------2----1-------0---------3-------3--------3----|
G|--------4--------4---------4------4---------2--------2--------2----0-------5---------0-------0--------0----|
D|--------2--------2---------2------2---------2--------0--------0----2-------5---------4-------2--------0----|
A|--------0--------0---------0------0---------2--------0--------2----0-------3---------3-------3--------3----|
E|--------0--------0---------0------0---------3--------2--------0----0---------------------------------------|

INSTRUMENTAL or an alternate CHORUS

 When the cold wind blows  I go where the dahlias bloom  I keep drifting back to your Florida   Room

     GMaj              Gsus2           BbMaj7        Bb6        FMaj        Am7       F9sus4C   G+9

e|-----0---------------------------------0------------0-----------0----------3----------3-------3-----------|
B|-----3----------------3----------------3------------3-----------1----------1----------4-------0-----------|
G|-----4----------------2----------------2------------0-----------2----------0----------3-------2-----------|
D|-----4----------------0----------------0------------0-----------2----------2----------3-------0-----------|
A|-----0----------------0----------------1------------1-----------0----------0----------3-------0-----------|
E|-----3----------------3-----------------------------------------1----------0----------x-------3-----------|


************************************

| x   Dead note
| g   Grace note
| (n) Ghost note
| h   Hammer-on
| p   Pull-off
| r   Release
| >   Accented note
| t   Tapping
| b   Bend
| br  Bend release
| pb  Pre-bend
| pbr Pre-bend release
| /   Slide up
| \   Slide down
| ~   Vibrato
| s   Slap
| P   Pop
| PM  Palm mute
| TR  Trill
| N   Tremolo

************************************
Suggest correction
Give kudos to tab author, rate the tab!
1 2 3 4 5
comments
print report bad tab
guest
You may want to rate the tab now too:
select rating
Wanna post a correction for this tab? Suggest correction