Oops, an error
Loading. Please wait.

New Frontier bass

923 views 9 this week
no commentswrite comment
1 2 3 4 5
1 last vote to show rating
add to favorites
×
Save as Personal and add changes to this tab that will be seen only by you. Learn more ›
×
You can save this tab as Personal to edit and correct it or add notes. All changes will be seen only by you. Learn more »
launch autoscroll
font size
0
reset
guitar tuner
edit
Autoscroll
slow
fast
+/-
esc
set tempo
stop
Author
Difficulty
                                   New Frontier
                                   Donald Fagen
 
Bass                                                         Donald Fagen

As played by Abraham Loboriel

Intro

|-------------|
|---6---7---8-|
|-------------|
|-4---5---6---|
  E E E E E E

|-----------------|-----------------|-----------------|-----------------|
|-----------------|-----------------|--------/4---7---|-----------------|
|--------/6-----9-|--------/6---9-9-|-5-----5-------4-|-------4-2-4-----|
|-7-----7---------|-7-----7---------|-----------------|---------------2-|
  Q   E E Q   E E   Q   E E Q   E.S   Q   E E Q   E E   Q.    E E E E E

|-----------------|-----------------|-----------------|-----------------|
|-----------------|---------------2-|-----------------|-----------------|
|---------------2-|-------2-0-2-----|---------------2-|-------------2-2-|
|-------2-0-2-----|-----------------|-0-----0/4-------|-0-----0/4-------|
  Q.    E E E E E   Q.    E E E E E   Q   E E Q   E E   Q   E E Q   E.S

|-----------------|-----------------|
|-----------------|-------6---7---8-|
|---------------2-|-----------------|
|-0-----0/4-------|-0---4---5---6---|
  Q   E E Q   E E   Q   E E E E E E

|-----------------|-----------------|-----------------|-----------------|
|-----------------|-----------------|--------/4---7---|-----------------|
|--------/6-----9-|--------/6---9---|-5-----5-------4-|-------4-2-4-----|
|-7-----7---------|-7-----7---------|-----------------|---------------2-|
  Q   E E Q   E E   Q   E E Q   Q     Q   E E Q   E E   Q.    E E E E E

|-----------------|-----------------|-----------------|-----------------|
|-----------------|-----------------|-----------------|-----------------|
|---------------2-|-------2-0-0-----|-----------------|-------------2---|
|-------2-0-2-----|-------------2---|-0-----0-0-------|-0-----3-4-------|
  Q.    E E E E E   Q.    E E E Q     Q   E E Q   Q     Q   E E Q   Q

|-----------------|-----------------|
|-----------------|-----------------|
|-----------------|-----------------|
|-0-----0/0-------|-0-----3-4-----4-|
  Q   E E Q   Q     Q   E E Q   E E

Verse 1

|-----------------|-----------------|-----------------|-----------------|
|-----------------|-----------------|---------7-5-7---|-----------------|
|--------/4-----7-|--------/4---7-7-|-----------------|-----------------|
|-5-----5---------|-5-----5---------|-5-----5---------|-0-----0-0-------|
  Q   E E Q   E E   Q   E E Q   E.S   Q   E E E E E E   Q   E E Q   Q

|-----------------|-----------------|-----------------|-----------------|
|-----------------|-----------------|-----------------|-----------------|
|-------------2---|-----------------|-----------------|--------/4-----7-|
|-0-----0/4-------|-0-----0-0-----0-|-0-----0-4-----4-|-5-----5---------|
  Q   E E Q   Q     Q   E E Q   E E   Q   E E Q   E E   Q   E E Q   E E

|-----------------|-----------------|-----------------|-----------------|
|-----------------|---------7-5-7---|-----------------|-----------------|
|--------/4---7---|-----------------|-----------------|-------------2---|
|-5-----5---------|-5-----5---------|-0-----0-0-------|-0-----0/4-------|
  Q   E E Q   Q     Q   E E E E E E   Q   E E Q   Q     Q   E E Q   Q

|-----------------|-----------------|-----------------|-----------------|
|-----------------|-----------------|-----------------|--------/4---7---|
|-----------------|-----------------|--------/4-----7-|-5-----5---------|
|-0-----0-0-----0-|-0-----0-4-----4-|-5-----5---------|-----------------|
  Q   E E Q   E E   Q   E E Q   E E   Q   E E Q   E E   Q   E E Q   Q

|-----------------|-----------------|-----------------|-----------------|
|-----------------|-----------------|-----------------|-----------------|
|-3-----3---3---3-|---------------2-|-------------2---|---------------2-|
|-----------------|-0-----0/4-------|-0-----0/4-------|-0-----0/4-------|
  Q   E E E E E E   Q   E E Q   E E   Q   E E Q   Q     Q   E E Q   E E

|-----------------|
|-----------------|
|-----------------|
|-0-----x-4-----4-|
  Q   E.S Q   E E

Verse 2

|-----------------|-----------------|-----------------|-----------------|
|-----------------|-----------------|---------7-5-7---|-----------------|
|--------/4-----7-|--------/4---7-7-|-----------------|-----------------|
|-5-----5---------|-5-----5---------|-5-----5---------|-0-----0-0-------|
  Q   E E Q   E E   Q   E E Q   E.S   Q   E E E E E E   Q   E E Q   Q

|-----------------|-----------------|-----------------|-----------------|
|-----------------|-----------------|-----------------|-----------------|
|-------------2---|-----------------|-----------------|--------/4-----7-|
|-0-----0/4-------|-0-----0-0-----0-|-0---3-3-4-----4-|-5-----5---------|
  Q   E E Q   Q     Q   E E Q   E E   Q E S S Q   E E   Q   E E Q   E E

|-----------------|-----------------|-----------------|-----------------|
|-----------------|---------7-5-7---|-----------------|-----------------|
|--------/4---7---|-----------------|-----------------|-------------2-2-|
|-5-----5---------|-5-----5---------|-0-----0-0-------|-0-----0/4-------|
  Q   E E Q   Q     Q   E E E E E E   Q   E E Q   Q     Q   E E Q   E.S

|-----------------|-----------------|-----------------|-----------------|
|-----------------|-----------------|-----------------|--------/4---7---|
|-----------------|-----------------|--------/4-----7-|-5-----5---------|
|-0-----0-0-----0-|-0---3-3-4-----4-|-5-----5---------|-----------------|
  Q   E E Q   E E   Q   S S Q   E E   Q   E E Q   E E   Q   E E Q   Q

|-----------------|-----------------|-----------------|-----------------|
|-----------------|-----------------|-----------------|-----------------|
|-3-----3---3---3-|---------------2-|-------------2---|---------------2-|
|-----------------|-0-----0/4-------|-0-----0/4-------|-0-----0/4-------|
  Q   E E E E E E   Q   E E Q   E E   Q   E E Q   Q     Q   E E Q   E E

|-----------------|
|-----------------|
|-------------2---|
|-0-----0/4-------|
  Q   E E Q   Q

Bridge 1

|-----------------|-----------------|-----------------|-----------------|
|-----------------|-----------------|-----------------|-----------------|
|-----------------|-----------------|---------7-----7-|-5-----5-6-----6-|
|-0-----0-0-----0-|-0-----0-0-----0-|-5-----5---------|-----------------|
  Q   E E Q   E E   Q   E E Q   E E   Q   E E Q   E E   Q   E E Q   E E

|-----------------|-------------4-6-7-6-|-----------------|-----------------|
|-----------------|---------4-6---------|-----------------|-----------------|
|-----------------|-4-----4-------------|---------3-----3-|-2-----2-1-----1-|
|-4-----4-4---4-4-|---------------------|-2-----2---------|-----------------|
  Q   E E Q E S S   Q   E E S S S S S E.  Q   E E Q   E E   Q   E E Q   E E

Verse 3

|-----------------|-----------------|-----------------|-----------------|
|-----------------|-----------------|---------7-5-7---|-----------------|
|--------/4-----7-|--------/4---7---|-----------------|-----------------|
|-5-----5---------|-5-----5---------|-5-----5---------|-0-----0-0-------|
  Q   E E Q   E E   Q   E E Q   Q     Q   E E E E E E   Q   E E Q   Q

|-----------------|-----------------|-----------------|-----------------|
|-----------------|-----------------|-----------------|-----------------|
|-------------2---|-----------------|-----------------|--------/4-----7-|
|-0-----0/4-------|-0-----0-0-----0-|-0---3-3-4-----4-|-5-----5---------|
  Q   E E Q   Q     Q   E E Q   E E   Q E S S Q   E E   Q   E E Q   E E

|-----------------|-----------------|-----------------|-----------------|
|-----------------|---------7-5-7---|-----------------|-----------------|
|--------/4---7---|-----------------|-----------------|-------------2---|
|-5-----5---------|-5-----5---------|-0-----0-0-------|-0-----0/4-------|
  Q   E E Q   Q     Q   E E E E E E   Q   E E Q   Q     Q   E E Q   Q

|-----------------|-------------------|-----------------|-----------------|
|-----------------|-------------------|-----------------|--------/4-7-----|
|-----------------|-------------------|--------/4-----7-|-5-----5-----5\--|
|-0-----0-0-----0-|-0---x-x-3-4-----4-|-5-----5---------|-----------------|
  Q   E E Q   E E   Q S S S S Q   E E   Q   E E Q   E E   Q   E E E E Q

|-----------------|-----------------|-----------------|-----------------|
|-----------------|-----------------|-----------------|-----------------|
|-3-----3-3-3---3-|---------------2-|-------------2---|---------------2-|
|-----------------|-0-----0/4-------|-0-----0/4-------|-0-----0/4-------|
  Q   E E E E E E   Q   E E Q   E E   Q   E E Q   Q     Q   E E Q   E E

|-------------------|
|-------------------|
|-------------------|
|-0---x-x-3/4-----4-|
  Q S S S E Q.    E

Solo

|-----------------|-----------------|-----------------|-----------------|
|-----------------|-----------------|---------7-5-7---|-----------------|
|--------/4-----7-|--------/4---7---|-----------------|-----------------|
|-5-----5---------|-5-----5---------|-5-----5---------|-------0-0-------|
  Q   E E Q   E E   Q   E E Q   Q     Q   E E E E E E   Q   E E Q   Q

|-----------------|-----------------|-----------------|-----------------|
|-----------------|-----------------|-----------------|---------7-5-7---|
|-------------2---|--------/4-----7-|--------/4---7---|-----------------|
|-0-----0/4-------|-5-----5---------|-5-----5---------|-5-----5---------|
  Q   E E Q   Q     Q   E E Q   E E   Q   E E Q   Q     Q   E E E E E E 

|-----------------|-----------------|-----------------|-----------7-----|
|-----------------|-----------------|-----------------|---------7-------|
|-----------------|-----------------|--------/4-----7-|-5-----5-----5\--|
|-------0-0-------|-0-----0/4-----4-|-5-----5---------|-----------------|
  Q   E E Q   Q     Q   E E Q   E E   Q   E E Q   E E   Q   E E E E Q

|-----------------|-----------------|-----------------|-----------------|
|-----------------|-----------------|-----------------|-----------------|
|-3-----3---3---3-|---------------2-|-------------2---|---------------2-|
|-----------------|-0-----0/4-------|-0-----0/4-------|-0-----0/4-------|
  Q   E E E E E E   Q   E E Q   E E   Q   E E Q   Q     Q   E E Q   E E

|-----------------|
|-----------------|
|-------------2---|
|-0-----0/4-------|
  Q   E E Q   Q

Bridge 2

|-----------------|-----------------|-----------------|-----------------|
|-----------------|-----------------|-----------------|-----------------|
|-----------------|-----------------|---------7-----7-|-5-----5-6-----6-|
|-------0-0-----0-|-0-----0-0-----4-|-5-----5---------|-----------------|
  Q   E E Q   E E   Q   E E Q   E E   Q   E E Q   E E   Q   E E Q   E E

|-----------------|-------------4-6-7-4-6-|-----------------|-----------------|
|-----------------|---------4-6-----------|-----------------|-----------------|
|-----------------|-4-----4---------------|---------3-----3-|-2-----2-1-----1-|
|-4-----4-4---4-4-|-----------------------|-2-----2---------|-----------------|
  Q   E E Q E S S   Q   E E S S S S S S E   Q   E E Q   E E   Q   E E Q   E E

Verse 4

|-----------------|-----------------|-----------------|-----------------|
|-----------------|-----------------|---------7-5-7---|-----------------|
|--------/4-----7-|--------/4---7---|-----------------|-----------------|
|-5-----5---------|-5-----5---------|-5-----5---------|-0-----0-0-------|
  Q   E E Q   E E   Q   E E Q   Q     Q   E E E E E E   Q   E E Q   Q

|-----------------|-----------------|-----------------|-----------------|
|-----------------|-----------------|-----------------|-----------------|
|---------------2-|-----------------|-----------------|--------/4-----7-|
|-0-----0/4-------|-0-----0-0-----0-|-0-----0-4-----4-|-5-----5---------|
  Q   E E Q   E E   Q   E E Q   E E   Q   E E Q   E E   Q   E E Q   E E

|-----------------|-----------------|-----------------|-----------------|
|-----------------|---------7-5-7---|-----------------|-----------------|
|--------/4---7---|-----------------|-----------------|-------------2---|
|-5-----5---------|-5-----5---------|-0-----0-0-------|-0-----0/4-------|
  Q   E E Q   Q     Q   E E E E E E   Q   E E Q   Q     Q   E E Q   Q

|-----------------|-------------------|-----------------|-----------------|
|-----------------|-------------------|-----------------|--------/4---7---|
|-----------------|-------------------|--------/4-----7-|-5-----5---------|
|-0-----0-0-----0-|-0---x-x-3-4-----4-|-5-----5---------|-----------------|
  Q   E E Q   E E   Q S S S S Q   E E   Q   E E Q   E E   Q   E E Q   Q

|-----------------|-----------------|-----------------|-----------------|
|-----------------|-----------------|-----------------|-----------------|
|-3-----3---3---3-|---------------2-|-------------2---|---------------2-|
|-----------------|-0-----0/4-------|-0-----0/4-------|-0-----0/4-------|
  Q   E E E E E E   Q   E E Q   E E   Q   E E Q   Q     Q   E E Q   E E

|-----------------|
|-------6---7---8-|
|-----------------|
|-0---4---5---6---|
  Q   E E E E E E

Outro

||------------------|-----------------|-----------------|-----------------|
||o-----------------|-----------------|--------/4---7---|-----------------|
||o--------/6-----9-|--------/6---9---|-5-----5-------4-|-------4-2-4-----|
||--7-----7---------|-7-----7---------|-----------------|---------------2-|
    Q   E E Q   E E   Q   E E Q   Q     Q   E E Q   E E   Q.    E E E E E

|-----------------|-----------------|-----------------|-----------------|
|-----------------|-----------------|-----------------|-----------------|
|---------------2-|-------2-0-2-----|---------------2-|-------------2---|
|-------2-0-2-----|---------------2-|-0-----0/4-------|-0-----0/4-------|
  Q.    E E E E E   Q.    E E E E E   Q   E E Q   E E   Q   E E Q   Q

                                   x4
|-----------------|------------------||
|-----------------|-------6---7---8-o||
|---------------2-|-----------------o||
|-0-----0/4-------|-0---4---5---6----||
  Q   E E Q   E E   Q   E E E E E E


Key to rhythm notations:

W - Whole Note/Semi-Brieve
H - Half Note/Minim
Q - Quarter Note/Crotchet       Q. - Dotted Quarter Note
E - Eight Note/Quaver           E. - Dotted Eight Note
S - Sixteenth Note/Semi-Quaver  S. - Dotted Sixteenth Note

            
            
Suggest correction
Creating personal tab
Creating personal tab
You can edit any tab online and save it as your Personal.

You can edit, replace or remove any tab part or add personal notes – all changes will be seen only by you.

Personal tabs can be accessed anytime from any device, even offline.
Learn more »
Give kudos to tab author, rate the tab!
1 2 3 4 5
comments
print report bad tab
guest
You may want to rate the tab now too:
select rating
Wanna post a correction for this tab? Suggest correction