Oops, an error
Loading. Please wait.

The Nightfly bass

357 views 9 this week
no commentswrite comment
1 2 3 4 5
3 more votes to show rating
add to favorites
×
Save as Personal and add changes to this tab that will be seen only by you. Learn more ›
×
You can save this tab as Personal to edit and correct it or add notes. All changes will be seen only by you. Learn more »
launch autoscroll
font size
0
reset
guitar tuner
edit
Autoscroll
slow
fast
+/-
esc
set tempo
stop
Author
Difficulty
                                   The Nightfly
                                   Donald Fagen
 
Bass                                                         Donald Fagen

As played by Marcus Miller

In 2/2

Intro

|---------|-----------------|-----------------|-----------------|-----------------|
|---------|-----------------|-----------------|-----------------|-------------0-1-|
|---------|-----------------|-2-----------3---|-----3-3---------|-3---3-----------|
|-----3-4-|-5---------------|-----------------|---------0---5-3-|-----------------|
  Q   E E   Q   H.            Q   H       Q     Q   E E Q   E E   Q   Q   Q   E E

|-----------------|-----------------|-----------------|-----------------|
|-2-----------0---|(0)----------3---|-----3-----------|-----------------|
|-----------------|-----------------|-------5-3-5---3-|-------------2-3-|
|-----------------|-----------------|-----------------|-1-1-------------|
  H.          Q     H.          Q     Q   E E E Q   E   Q H         E E

|-----------------|-----------------|-----------------|-----------------|
|-----------------|-----------------|-----------------|-----------------|
|-2-----------2---|-----------------|-----------------|-----------------|
|-----------------|-------0-0---2---|-3-----------3---|-------0-0---2---|
  Q   Q   Q   Q     Q.    E Q   Q     Q   H       Q     Q.    E Q   Q

|-----------------|-----------------|-----------------|-----------------|
|-----------------|-----------------|-----------------|-----------------|
|-3-----------3---|-3---------------|-------------5---|(5)--------------|
|-----------------|-------------3---|-5---------------|-----------------|
  Q   H       Q     H.          Q     H.          Q     W

Verse 1

|-----------------|-----------------|-----------------|-----------------|
|-----------------|-----------------|-----------------|-----------------|
|-----------------|-----------------|-----------------|-----------------|
|-3-------------3-|-3---3-----------|-3-------------3-|-3---3-----------|
  Q   Q   Q.    E   Q   Q   H         Q   Q   Q.    E   Q   Q   H

|-----------------|-----------------|-----------------|-----------------|
|-----------------|-----------------|-----------------|-----------------|
|-----------------|-------------2---|-----------------|---------2-------|
|-3-------------3-|-3---3-----------|-0---0-----------|-----------------|
  Q   Q   Q.    E   Q   Q   Q   Q     Q   Q   H         H       H

|-----------------|-----------------|-----------------|-----------------|
|-----------------|-----------------|-----------------|-----------------|
|-0---0-----------|-3---------------|-2-----------2---|(2)--------------|
|-----------------|-----------------|-----------------|---------0-------|
  Q   Q   H         W                 Q   H       Q     H       Q   Q

|-----------------|-----------------|-----------------|-----------------|
|-----------------|-----------------|-----------------|-----------------|
|-------------5---|(5)------3-------|-----------------|-----------------|
|-----------------|-----------------|-------------5---|(5)------3-------|
  H.          Q     H       Q   Q     H.          Q     H       Q   Q

|-----------------|-----------------|
|-----3---5-------|-----------------|
|-3---------------|-5---------------|
|-------------3---|-----------------|
  Q   Q   Q   Q     H       H

Verse 2

|-----------------|-----------------|-----------------|-----------------|
|-----------------|-----------------|-------------9---|-7-------5-------|
|-----------------|-----------------|-----------------|-----------7-----|
|-3-------------3-|-3---3-----------|-3---------------|-------------3---|
  Q   Q   Q.    E   Q   Q   H         Q   Q   Q   Q     H       E E Q

|-----------------|-----------------|-----------------|-----------------|
|-----------------|-----------------|-----------------|-----------------|
|-----------------|-------------2---|-----------------|---------2-------|
|-3-------------3-|-3---3-----------|-0---0-----------|-----------------|
  Q   Q   Q.    E   Q   Q   Q   Q     Q   Q   H         H       H

|-----------------|-----------------|-----------------|-----------------|
|-----------------|-----------------|-----------------|-----------------|
|-0---0-----------|-3---------------|-2-----------2---|(2)--------------|
|-----------------|-----------------|-----------------|---------0-------|
  Q   Q   H         W                 Q   H       Q     H       Q   Q

|-----------------|-----------------|-----------------|-----------------|
|-----------------|-----------------|-----------------|-----------------|
|-------------5---|(5)------3-------|-----------------|-----------------|
|-----------------|-----------------|-------------5---|(5)------3-----5-|
  H.          Q     H       Q   Q     H.          Q     H       Q   E E

|-----------------|-----------------|
|-----3---5-------|-----------------|
|-3---------------|-----------------|
|-------------3---|(3)----------3-4-|
  Q   Q   Q   Q     H.          E E

Chorus 1

|-----------------|-----------------|-----------------|-----------------|
|-----------------|-----------------|-----------------|-------------0-1-|
|-----------------|-2-----------3---|-----3-----------|-3---3-----------|
|-5---------------|-----------------|-----------0-5-3-|-----------------|
  Q   H.            Q   H       Q     Q   Q   E E E E   Q   Q   Q   E E

|-----------------|-----------------|-----------------|-----------------|
|-2-----------0---|(0)----------3---|(3)--------------|-----------------|
|-----------------|-----------------|-----------5-3-5-|-------------2-3-|
|-----------------|-----------------|-----------------|-1---1-----------|
  H.          Q     H.          Q     H.      E E E E   Q   H       E E

|-----------------|-----------------|-----------------|-----------------|
|-----------------|-----------------|-----------------|-----------------|
|-2-----------2---|-----------------|-----------------|-----------------|
|-----------------|-------0-0---2---|-3-----------3---|-------5-5---7---|
  Q   H       Q     Q.    E Q   Q     Q   H       Q     Q.    E Q   Q

|-----------------|-----------------|-----------------|-----------------|
|-----------------|-------------0-2-|-2---2---0-2---2-|-----------------|
|-3-----------2---|(2)--------------|-------2---------|-----------------|
|-----------------|-----------------|-----------------|-0---0-----------|
  H.          Q     H.          E E   Q   E E E E E E   Q   H       Q

|-----------------|-----------------|-----5-5-7-------|-5-7-5-----------|
|-----------------|-------------2---|-----------------|-----------------|
|-5-----------5---|-----------------|-----------------|-----------------|
|-----------------|---------0-------|-----------------|-------0-----2---|
  Q   H       Q     H       Q   Q     Q   E E E E Q     E E E Q.    Q

|-----------------|-----------------|-------------2-4-|-4---------------|
|-----------------|-----------------|-----------------|-----------------|
|-----------------|---------1---2---|-2---------------|-----------------|
|(2)------------2-|-2---4-----------|-----------------|-----------------|
  Q   Q   Q.    E   Q   Q   Q   Q     H.          E E   W

|-----------------|-----------------|-----------------|-----------------|
|-----------------|-----------------|-----------------|-----------------|
|-----------------|-----------------|-----------------|-----------------|
|-0---------------|-0-----------3-5-|-5---------------|-5---------------|
  W                 H.          E E   W                 W

|-----------------|-----------------|-----------------|-----------------|
|-----------------|-----------------|-----------------|---------5-------|
|-----------------|-----------------|-3-------------3-|-----5-------3---|
|-4---------------|-3---------------|-----------------|-3---------------|
  W                 W                 H.          E E   Q   Q   Q   Q

|-----------------|-----------------|-----------------|-------12-14-----|
|-----------------|--------/7-------|-----------------|----12-----------|
|(3)------------3-|-----5-------5---|-3---------10-12-|-14--------------|
|-----------------|-3---------------|-----------------|-----------------|
  H.          E E   Q   Q   Q   Q     H.        E  E    E  E  E  E  H

|(14)-------------|-7-----------7---|-7---------------|-----------------|
|-----------------|---------------7-|---7-------------|-----------------|
|-----------------|-----------------|-----5-----------|-7---------------|
|-----------------|-----------------|-----------------|-------------5---|
  W                 H.          E E   E E H.            Q   H       Q

|-----------------|-----------------|-----------------|-----------------|
|-------------7---|-----------------|-----------------|-----------------|
|---------------7-|-5---------------|-5---------------|-------------5---|
|(5)--------------|-----------------|-------------3-4-|-5---------------|

|-----------------|
|-----------------|
|(5)--------------|
|-----------------|

Verse 3

|-----------------|-----------------|-----------------|-----------------|
|-----------------|-----------------|-----------------|-----------------|
|-----------------|-----------------|-----------------|-----------------|
|-3-------------3-|-3---3-----------|-3-------------3-|-3---3-----------|
  Q   Q   Q.    E   Q   Q   H         Q   Q   Q.    E   Q   Q   H

|-----------------|-----------------|-----------------|-----------------|
|-----------------|-----------------|-----------------|-----------------|
|-----------------|-------------2---|-----------------|---------2-------|
|-3-------------3-|-3---3-----------|-0---0-----------|-----------------|
  Q   Q   Q.    E   Q   Q   Q   Q     Q   Q   H         H       H

|-----------------|-----------------|-----------------|-----------------|
|-----------------|-----------------|-----------------|-----------------|
|-0---0-----------|-3---------------|-2-----------2---|(2)--------------|
|-----------------|-----------------|-----------------|---------0-------|
  Q   Q   H         W                 Q   H       Q     H       Q   Q

|-----------------|-----------------|-----------------|-----------------|
|-----------------|-----------------|-----------------|-----------------|
|-------------5---|(5)------3-------|-----------------|-----------------|
|-----------------|-----------------|-------------5---|(5)------3-----5-|
  H.          Q     H       Q   Q     H.          Q     H       Q   E E

|-----------------|-----------------|
|-----3---5-------|-----------------|
|-3---------------|-5---------------|
|-------------3---|-----------------|
  Q   Q   Q   Q     H       H

Verse 4

|-----------------|-----------------|-----------------|-----------------|
|-----------------|-----------------|-------------9---|-7-------5-------|
|-----------------|-----------------|-----------------|-----------7-----|
|-3-------------3-|-3---3-----------|-3---------------|-------------3---|
  Q   Q   Q.    E   Q   Q   H         Q   Q   Q   Q     H       E E Q

|-----------------|-----------------|-----------------|-----------------|
|-----------------|-----------------|-----------------|-----------------|
|-----------------|-------------2---|-----------------|---------2-------|
|-3-------------3-|-3---3-----------|-0---0-----------|-----------------|
  Q   Q   Q.    E   Q   Q   Q   Q     Q   Q   H         H       H

|-----------------|-----------------|-----------------|-----------------|
|-----------------|-----------------|-----------------|-----------------|
|-0---0-----------|-3---------------|-2-----------2---|(2)--------------|
|-----------------|-----------------|-----------------|---------0-------|
  Q   Q   H         W                 Q   H       Q     H       Q   Q

|-----------------|-----------------|-----------------|-----------------|
|-----------------|-----------------|-----------------|-----------------|
|-------------5---|(5)------3-------|-----------------|-----------------|
|-----------------|-----------------|-------------5---|(5)------3-----5-|
  H.          Q     H       Q   Q     H.          Q     H       Q   E E

|-----------------|-----------------|
|-----3---5-------|-----------------|
|-3---------------|-----------------|
|-------------3---|(3)----------3-4-|
  Q   Q   Q   Q     H.          E E

Chorus 2

|-----------------|-----------------|-----------------|-----------------|
|-----------------|-----------------|-----------------|-------------0-1-|
|-----------------|-2-----------3---|-----3-3---------|-3---3-----------|
|-5---------------|-----------------|---------0---5-3-|-----------------|
  Q   H.            Q   H       Q     Q   E E Q   E E   Q   Q   Q   E E

|-----------------|-----------------|-----------------|-----------------|
|-2-----------0---|(0)----------3---|(3)--3-----------|-----------------|
|-----------------|-----------------|-------5-3-5---3-|-------------2-3-|
|-----------------|-----------------|-----------------|-1---1-----------|
  H.          Q     H.          Q     Q   E E E Q   E   Q   H       E E

|-----------------|-----------------|-----------------|-----------------|
|-----------------|-----------------|-----------------|-----------------|
|-2-----------2---|-----------------|-----------------|-------------2---|
|-----------------|-------0-0---2---|-3-----------3---|-------5-5-------|
  Q   H       Q     Q.    E Q   Q     Q   H       Q     Q.    E Q   Q

|-----------------|-----------------|-----------------|-----------------|
|-----------------|-----------------|-----2-0---0-----|-----------------|
|-3---------------|-2---------------|---------2-----2-|-----------------|
|-----------------|-------------0---|-0---------------|-0---0-----------|
  W                 H.          Q     Q   E E E Q   E   Q   H       Q

|-----------------|-----------------|-----------------|-----------------|
|-----------------|-------------2---|-----------------|-----------------|
|-5-----------5---|-----------------|-----------------|-----------------|
|-----------------|-----------------|-0---0-------0---|-0-----------2---|
  Q   H       Q     H       Q   Q     Q   Q   Q   Q     E   Q   Q   Q

|-----------------|-----------------|-----------------|-4---4-----------|
|---------------4-|(4)--------------|-----------------|-----------------|
|-----------------|-------------2---|-2-----------2/--|-----------------|
|(2)--------------|-----------------|-----------------|-----------------|
  Q   Q   Q.    E   H.          Q     H.          E E   Q   H.

|-----------------|-----------------|-----------------|-----------------|
|-----------------|/2---------------|-----------------|/7---------------|
|-----------------|-----------------|-----------------|-----------------|
|-0---------------|-----------------|-5---------------|-----------------|
  W                 W                 W                 W

|-----------------|-----------------|-----------------|-----------------|
|-6---------------|-5---------------|-----------------|---------5-------|
|-----------------|-----------------|-3-------------3-|-----5-------3---|
|-----------------|-----------------|-----------------|-3---------------|
  W                 W                 H.          E E   Q   Q   Q   Q

|-----------------|-----------------|-----------------|-----------------|
|-----------------|--------/7-------|-----------------|---------5-------|
|(3)------------3-|-----5-------5---|-3-------------3-|-----5-------3---|
|-----------------|-3---------------|-----------------|-3---------------|
  H.          E E   Q   Q   Q   Q     H.          E E   Q   Q   Q   Q

|-----------------|-------12-14-----|(14)-------------|-----------------|
|-----------------|----12-----------|-----------------|-----------------|
|(3)--------10-12-|-14--------------|-----------------|-5---------------|
|-----------------|-----------------|-----------------|-----------------|
  H.        E  E    E  E  E  E H      W                 W

|-----------------|-----------------|-----------------|
|-----------------|-----------------|-4---------------|
|-5---------------|-----------------|-----------------|
|-------------3---|-5-----------5---|-----2-------3-4-|
  H.          Q     Q   H       Q     Q   H       E E

Bridge

|-----------------|-----------------|-----------------|-----------------|
|-----------------|-----------------|-----------------|-----------------|
|-2-----------2---|-----------------|-----------------|-------0-----1---|
|-----------------|-------1-----1---|-2-----------2---|-----------------|
  Q   H       Q     Q.    Q   E Q     Q   H       Q     Q.    Q   E Q

|--------/4-------|-----------------|-----------------|-----------------|
|-----------------|-----------------|-----------------|--------/2-------|
|-2-----------2---|-----------------|-----------------|-----------------|
|-----------------|-------2-----1---|-0------/4---0---|-----0-------0---|
  Q   Q   Q   Q     Q.    Q   E Q     Q   Q   Q   Q     Q   Q   Q   Q

|-----------------|-----------------|-----------------|-----------------|
|-----------------|-----------------|-----------------|-----------------|
|-6-----------6---|-------7-5---6---|-7-----------7---|-----------2-4-2-|
|-----------------|-----------------|-----------------|-----------------|
  Q   Q   Q   Q     Q.    E Q   Q     Q   Q   Q   Q     H       E E E E

|-----------------|-----------------|---------1-3-1---|-----------------|
|-2---------------|-----------------|-----------------|-1---------------|
|-------------0-1-|-2-----------2---|-1---------------|-----------------|
|-----------------|-----------------|-----------------|-----------------| 
  H.          E E   H.          Q     H       E E Q     W

|-----------------|-----------------|-----------------|-----------------|
|-----------------|-----------------|---------6-------|-----------------|
|-2-----------2---|-----------------|-----------------|-----------------|
|-----------------|-------2-----2---|-4-----------4---|-------2-----3---|
  Q   H       Q     Q.    Q   E Q     Q   Q   Q   Q     Q.    Q   E Q

|-----------------|-----------------|-----------------|-----------------|
|-----------------|-----------------|-----------------|-----------------|
|-----------------|-----------------|-----------------|-----------------|
|-4-----------4-4-|-2-----------2---|-5-----------5---|-0---2---5-------|
  H       Q   E E   H       Q   Q     H       Q   Q     Q   Q   H

|-----------------|-----------------|-----------------|-----------------|
|-1-----------1---|-----------------|-2-------2-------|-----------------|
|-----------------|-------6-4---6---|-----------------|-----------------|
|-----------------|-----------------|-------------0---|-----2---3---4---|
  Q   H       Q     Q.    E Q   Q     Q   Q   Q   Q     Q   Q   Q   Q

|-----------------|-----------------|-----------------|-----------------|
|-----------------|---------0---1---|-----------------|-----------------|
|-----------------|-2---4-----------|---------4---6---|(6)----------4---|
|-----4---2---4---|-----------------|-----------------|-----------------|
  Q   E E Q   Q     Q   Q   Q   Q     H       Q   Q     H.          Q 

|-----------------|-----------------|-----------------|-----------------|
|-------------x-x-|-------------x-x-|-----------------|-----------------|
|-2---------------|-----------------|-----------------|-0-----------4-5-|
|-----------------|-1---------------|-0-----------0---|-----------------|
  H.          E E   H.          E E   H       Q   Q     H.          E E

|-----------------|-----------------|-----------------|-----------------|
|-----------------|-----------------|-----------------|-----------------|
|-6-----------6---|-----------------|-4---------------|-----------------|
|-----------------|-4---4-----------|-------2-0---2---|-2---2-----------|
  H.          Q     Q   H.            Q.    E Q   Q     Q   H.

|-----------------|-----------------|-----------------|-----------------|
|-----------------|-------------x-x-|-----------------|-----------------|
|-----------------|-----------------|-------------5---|(5)--------------|
|-1---------------|-1---------------|-5---------------|-----------------|
  W                 H.          E E   H.          Q     W

Solo

|-----------------|-----------------|-----------------|-----------------|
|-----------------|-----------------|-----------------|-----------------|
|-----------------|-----------------|-----------------|-----------------|
|-3-------------3-|-3---3-----------|-3-------------3-|-3---3-----------|
  Q   Q   Q.    E   Q   Q   H         Q   Q   Q.    E   Q   Q   H

|-----------------|-----------------|-----------------|-----------------|
|-----------------|-----------------|-----------------|-----------------|
|-----------------|-----------------|-----------------|---------2-------|
|-3-------------3-|-3---3-----------|-0---0-----------|-----------------|
  Q   Q   Q.    E   Q   Q   Q   Q     Q   Q   H         H       H

|-----------------|-----------------|-----------------|--------------11-|
|-----------------|-----------------|-----------------|-----------------|
|-0---0-----------|-3---------------|-2-----------2---|(2)--------------|
|-----------------|-----------------|-----------------|---------0-------|
  Q   Q   H         W                 Q   H       Q     H       Q  E E

|-12--------------|-----------------|-----------------|-----------------|
|-----------------|-----------------|-----------------|-----------------|
|-------------5---|(5)------3-------|-----------------|-----------------|
|-----------------|-----------------|-------------5---|(5)------3-----5-|
  E E H       Q     H       Q   Q     H.          Q     H       Q   E E

|-----------------|-----------------|
|-----3---5-------|-----------------|
|-3---------------|-5---------------|
|-------------3---|-----------------|
  Q   Q   Q   Q     H       H

|-----------------|-----------------|-----------------|-----------------|
|-----------------|-----------------|-------------9---|-7-------5-------|
|-----------------|-----------------|-----------------|-----------7-----|
|-3-------------3-|-3---3-----------|-3---------------|-------------3---|
  Q   Q   Q.    E   Q   Q   H         Q   Q   Q   Q     H       E E Q

|-----------------|-----------------|-----------------|-----------------|
|-----------------|-----------------|-----------------|-----------------|
|-----------------|-------------2---|-----------------|---------2-------|
|-3-------------3-|-3---3-----------|-0---0-----------|-----------------|
  Q   Q   Q.    E   Q   Q   Q   Q     Q   Q   H         H       H

|-----------------|-----------------|-----------------|-----------------|
|-----------------|-----------------|-----------------|-----------------|
|-0---0-----------|-3---------------|-2-----------2---|(2)--------------|
|-----------------|-----------------|-----------------|---------0-------|
  Q   Q   H         W                 Q   H       Q     H       Q   Q

|-----------------|-----------------|-----------------|-----------------|
|-----------------|-----------------|-----------------|-----------------|
|-------------5---|(5)------3-------|-----------------|-----------------|
|-----------------|-----------------|-------------5---|(5)------3-----5-|
  H.          Q     H       Q   Q     H.          Q     H       Q   E E

|-----------------|-----------------|
|-----3---5-------|-----------------|
|-3---------------|-----------------|
|-------------3---|(3)----------3-4-|
  Q   Q   Q   Q     H.          E E

Chorus 3

|-----------------|-----------------|-----------------|-----------------|
|-----------------|-----------------|-----------------|-------------0-1-|
|-----------------|-2-----------3---|-----3-----------|-3---3-----------|
|-5---------------|-----------------|-------0-3-5---3-|-----------------|
  Q   H.            Q   H       Q     Q   E E E Q   E   Q   Q   Q   E E

|-----------------|-----------------|-----------------|-----------------|
|-2-----------0---|(0)----------3---|(3)--3-----------|-----------------|
|-----------------|-----------------|-------5-3-5---3-|-------------2-3-|
|-----------------|-----------------|-----------------|-1---1-----------|
  H.          Q     H.          Q     Q   E E E Q   E   Q   H       E E

|-----------------|-----------------|-----------------|-----------------|
|-----------------|-----------------|-----------------|-----------------|
|-2-----------2---|-----------------|-----------------|-------------2---|
|-----------------|-------0-0---2---|-3-----------3---|-------5-5-------|
  Q   H       Q     Q.    E Q   Q     Q   H       Q     Q.    E Q   Q

|-----------------|-----------------|-----------------|-----------------|
|-----------------|-----------------|-----2-0---0-----|-----------------|
|-3---------------|-2---------------|---------2-----2-|-----------------|
|-----------------|-------------0---|-0---------------|-0---0-----------|
  W                 H.          Q     Q   E E E Q   E   Q   H       Q

|-----------------|-----------------|-----------------|-----------------|
|-----------------|-------------2---|-----------------|-----------------|
|-5-----------5---|-----------------|-----------------|-----------------|
|-----------------|-----------------|-0---0-------0---|-0-----------2---|
  Q   H       Q     H       Q   Q     Q   Q   Q   Q     E   Q   Q   Q

|-----------------|-----------------|-------------4-6-|-8---------------|
|-----------------|-----------------|-----------------|-----------------|
|-----------------|-----0---1---2---|(2)--2-----------|-----6-----------|
|(2)--------------|-2---------------|-----------------|-----------------|
  W                 Q   Q   Q   Q     Q   H       E E   Q   H.

|-----------------|-----------------|/18--------------|-17--------------|
|-----------------|/2---------------|-----------------|-----------------|
|-----------------|-----------------|-----------------|-----------------|
|-0---------------|-----------------|-----------------|-----------------|
  W                 W                 W                 W

|-----------------|-----------------|-----------------|-----------------|
|-6---------------|-5\--------------|-----------------|---------5-------|
|-----------------|-----------------|-3-------------3-|-----5-------3---|
|-----------------|-----------------|-----------------|-3---------------|
  W                 W                 H.          E E   Q   Q   Q   Q

|-----------------|-----------------|-----------------|-----------------|
|-----------------|--------/7-------|-----------------|---------5-------|
|(3)------------3-|-----5-------3---|(3)------------3-|-----5-------3---|
|-----------------|-3---------------|-----------------|-3---------------|
  H.          E E   Q   Q   Q   Q     H.          E E   Q   Q   Q   Q

|-----------------|-----------------|-----------------|-----------------|
|-----------------|--------/7-------|-----------------|---------5-------|
|(3)------------3-|-----5-------3---|(3)------------3-|-----5-------3---|
|-----------------|-3---------------|-----------------|-3---------------|
  H.          E E   Q   Q   Q   Q     H.          E E   Q   Q   Q   Q

|-----------------|-----------------|-----------------|-----------------||
|-----------------|-----------------|-----------------|-----------------||
|(3)--------------|-----------------|-----------------|-----------------||
|---------------5-|(5)--------------|(5)--------------|(5)--------------||
  H.          E E   W                 W                 W


Key to rhythm notations:

W - Whole Note/Semi-Brieve
H - Half Note/Minim
Q - Quarter Note/Crotchet       Q. - Dotted Quarter Note
E - Eight Note/Quaver           E. - Dotted Eight Note
S - Sixteenth Note/Semi-Quaver  S. - Dotted Sixteenth Note

            
            
Suggest correction
Creating personal tab
Creating personal tab
You can edit any tab online and save it as your Personal.

You can edit, replace or remove any tab part or add personal notes – all changes will be seen only by you.

Personal tabs can be accessed anytime from any device, even offline.
Learn more »
Give kudos to tab author, rate the tab!
1 2 3 4 5
comments
print report bad tab
guest
You may want to rate the tab now too:
select rating
Wanna post a correction for this tab? Suggest correction