Oops, an error
Loading. Please wait.

Big Wave tab

1,057 views 21 this week
no commentswrite comment
1 2 3 4 5
2 more votes to show rating
add to favorites
×
Save as Personal and add changes to this tab that will be seen only by you. Learn more ›
×
You can save this tab as Personal to edit and correct it or add notes. All changes will be seen only by you. Learn more »
launch autoscroll
font size
0
reset
how to read this tab
guitar tuner
edit
Autoscroll
slow
fast
+/-
esc
set tempo
stop
About this tab version
There are no other tabs for this song. Was this info helpful? Yes No
Big Wave 
-Donavon Frankenreiter

Standard Tunning


[Intro]

You can also just strum the G chord, but its much nicer how Donnie does it:

    G
e|-----------------------------------------------------------------------------|
B|----------0-1/3-------------0-1/3--------------------------------------------|
G|------x---0-2/4-x--------x--0-2/4--------------------------------------------|
D|------x---------x--------x---------------------------------------------------|
A|------x---------x--------x---------------------------------------------------|
E|--3---------------0h3--------------------------------------------------------|


[Verse]

Keep on playing the intro and then after "Thats what you did:" 
(Here you could strum the C chord)
     C
e|---------------------------------------------------------------------------|
B|-------1-1-------1----------1-1-------1------------------------------------|
G|-------0-0-------0~---------0-0-------0------------------------------------|
D|-------2-2---0h2-2----------2-2---0h2-2------------------------------------|
A|---3---------------------3-------------------------------------------------|
E|---------------------------------------------------------------------------|

"You opened my ayes" and again: 
    G
e|-----------------------------------------------------------------------------|
B|----------0-1/3-------------0-1/3--------------------------------------------|
G|------x---0-2/4-x--------x--0-2/4--------------------------------------------|
D|------x---------x--------x---------------------------------------------------|
A|------x---------x--------x---------------------------------------------------|
E|--3---------------0h3--------------------------------------------------------|

Play those two previous riffs for the last two lines before the chorus.


[Chorus]

The chords are G F C C (Each letter represents two beats in a 4/4 measure.)

If you wanna play the bass notes it goes sorta like this:
   G      F       C   C
e|---------------------------------------------------------------------------|
B|---x------1-1------1--1----------------------------------------------------|
G|---x------2-2------0--0----------------------------------------------------|
D|---x------3-3------2--2----------------------------------------------------|
A|---x------3-3---3--3--3----------------------------------------------------|
E|-3---3--1------------------------------------------------------------------|


Any suggestions: sergiomadrigal777@gmail.com!

Para mi Big Wave Fabi C.



************************************

| x  Dead note
| h  Hammer-on
| /  Slide up
| ~  Vibrato

************************************

            
            
Suggest correction
Creating personal tab
Creating personal tab
You can edit any tab online and save it as your Personal.

You can edit, replace or remove any tab part or add personal notes – all changes will be seen only by you.

Personal tabs can be accessed anytime from any device, even offline.
Learn more »
Give kudos to tab author, rate the tab!
1 2 3 4 5
comments
print report bad tab
guest
You may want to rate the tab now too:
select rating
Wanna post a correction for this tab? Suggest correction