Oops, an error
Loading. Please wait.

Butterfly tab

version 1
version 1

Whole song

13,089 views 12 this week
3 commentsread comments
1 2 3 4 5
x 4
add to favorites
×
Save as Personal and add changes to this tab that will be seen only by you. Learn more ›
×
You can save this tab as Personal to edit and correct it or add notes. All changes will be seen only by you. Learn more »
launch autoscroll
font size
0
reset
how to read this tab
guitar tuner
edit
Autoscroll
slow
fast
+/-
esc
set tempo
stop
Author
donovan - butterfly
tabbed by:zane heemi
email:justa_fortunate_fool@hotmial.com

sorry if its crap this is my first tab

Tuning:
intro
e|---------------------------------------------------------------|
B|-----8------8----8-----3-----3---------------------------------|
G|-7-7---7-7---6-6---5-5---5-5---5-------------------------------|
D|-0-------------------------------------------------------------|
A|-------------------0-------0-----------------------------------|
E|-------7-----6-------------------------------------------------|

e|---------------------------------------------------------------|
B|-0-0--1-1--3-3--1-1--------------------------------------------|
G|-0-0--0-0--2-2--0-0--through out song--------------------------|
D|-0-0--2-2--4-4--2-2--------------------------------------------|
A|------0-0--2-2--0-0--------------------------------------------|
E|-3-3-----------------------------------------------------------|

lyrics: 
verse:
if the road i travel goes bad
if the life i live becomes the life i had
i'd close my eyes and id dream
of my butterfly comin down to rescue me 

chorus:
shes my butterfly yeah shes my butterfly
said shes my butterfly yeah shes my butterfly

verse:
if the wind that guides you pulls you away
if the love that guides you ever asks you to stay
id still close my eyes and id dream
of my butterfly comin down to rescue me

chorus:
shes my butterfly yeah shes my butterfly
said shes my butterfly, butterfly, butterfly
i said shes my butterfly, shes my butterfly
butterfly

            
            
Suggest correction
Creating personal tab
Creating personal tab
You can edit any tab online and save it as your Personal.

You can edit, replace or remove any tab part or add personal notes – all changes will be seen only by you.

Personal tabs can be accessed anytime from any device, even offline.
Learn more »
comments
print report bad tab
3 comments total.
0 reply
bigjesse 104 Feb 26, 2006 10:49 PM

why would you post it if you knew it was crap?

+1 reply
Solidforce 178 Jul 30, 2006 06:52 AM

dont be so hard dude
chords are ok, I rather play them barree, but that's what you prefer. The intro the pickin it;s 100% correct, ill try to see if I can find the good riff, anyway good tab for the first time, keep it going! cheers

0 reply
Solidforce 178 Jul 30, 2006 07:19 AM

intro
e|---------------------------------------------------------------|
B|---------------------------------------------------------------|
G|---3-5-5-7-7-5-5/4---------------------------------------------|
D|-4-------------------------------------------------------------|
A|---------------------------------------------------------------|
E|---------------------------------------------------------------|

chorus
e|---------------------------------------------------------------|
B|-------8-----8-----8-------------------------------------------|
G|---3-----5-5----7-----5-7-5------------------------------------|
D|-4--4-----5----5-5---5-5---------------------------------------|
A|---------------------------------------------------------------|
E|---------------------------------------------------------------|

something like this, mabey use with the intro riff a bass string E or a

guest
You may want to rate the tab now too:
select rating
Wanna post a correction for this tab? Suggest correction