Oops, an error
Loading. Please wait.

Hot Stuff Bass Tab

version 2
version 2

Whole song

  • This is the version from Disco Inferno: The Musica... Show more

Interactive

813 views 30 this week
no commentswrite comment
1 2 3 4 5
3 more votes to show rating
add to favorites
launch autoscroll
font size
0
reset
guitar tuner
Autoscroll
slow
fast
+/-
esc
set tempo
stop
Help us to improve Ultimate-Guitar.com Take our survey!
×
About this tab version
This is the version from Disco Inferno: The Musical. And may not sound like the original piece. Was this info helpful? Yes No
-------------------------------------------------------------------------------
                             HOT STUFF - DONNA SUMMER
-------------------------------------------------------------------------------
Tabbed by: Tyran :) 
E-mail: caitsullivan57@gmail.com

This is the version from Disco Inferno: The Musical! And may not sound like the original piece :) 
Tuning: EADG
                     
INTRO                  A
G|---------------------------------------------------------------------------|
D|---------------------------------------------------------------------------|
A|---------------------------------------------------------------------------|
E|-2-2-2-2-0-0-0-2-2-2-2-2-0-0-0-1---2-2-2-2-2-2-2-2-0-0-0-0-2-2-2-2-2-2-2-2-|
                       
                            VERSE
                              B
G|---------------------------------------------------------------------------|
D|---------------------------------------------------------------------------|
A|---------------------------------------------------------------------------|
E|-2-2-2-2-0-0-0-0-2-2-2-2----2-2-2-2-2-2-2-2-0-0-0-0-2-2-2-2-2-2-2-2-2-2-2-2|
                        
                       CHORUS
                         C
G|----------------------------4---4---6---6---------------------------------------------|
D|---------------4---4------------------------4---4---4---4----------------4---4--------|
A|-------------------------2----2---4---4-------------------x2-2-2-4-4-4-----------0-2--|
E|-0-0-0-0-2-2-2---2------------------------2---2---2---2----------------2---2---2------|

G|---4---4---6---6------------------4---4---6---6-----------------4---4---6---6--|
D|-------------------4---4--------------------------4---4------------------------|
A|-2---2---4---4-------------0-2--2---2---4---4-------------0-2-2---2---4---4----|
E|-----------------2---2---2----------------------2---2---2----------------------|
  
 LINK
   D
G|---------------------------------------------------------------------------------|
D|---4---4---4---4---4---4---4---4--7---7---7---7---4---4---4---4---4---4---4---4--|
A|---------------------------------------------------------------------------------|
E|-2---2---2---2---2---2---2---2--0---0---0---0---2---2---2---2---2---2---2---2----|

                                                VERSE 2
                                                   E
G|---------------------------------------------------------------------------|
D|---4---4---4---4---7---7---7---7---4---4---4---4---------------------------|
A|---------------------------------------------------------------------------|
E|-2---2---2---2---0---0---0---0---2---2---2---2-----2-2-2-2-2-2-2-2-0-0-0-0-|


                                          CHORUS
G|----------------------------------------------------------------------------------------|
D|-------------------------------------------------3-3-3-3--------------------------------|
A|-----------------------------------------2-2-4-4---------2-2-4-4---------2-2-4-4--------|
E|-2-2-2-2-2-2-2-2-2-2-2-2-0-0-0-0-2-2-2-2-------------------------2-2-2-2---------2-2-2-2|

G|----------------------------4---4---6---6-----------------4---4---6---6--------------|
D|--------------4---4-------------------------4---4-------------------------4----4-----|
A|-2-2-4-4-4------------0-2-2---2---4---4-------------0-2-2---2---4---4-------------0-2|
E|------------2---2---2---------------------2---2---2---------------------2----2--2----|

                                              GUITAR SOLO
                                                  F
G|---4---4---6---6-----------------4---4---6---6--------------------2-1--------------|
D|-------------------4---4----------------------------4---------2-4-----4-2-4-----2--|
A|-2---2---4---4-------------0-2-2---2---4---4----------x58---4---------------0-4----|
E|-----------------2---2---2------------------------2-------2------------------------|

BRIDGE
  G 
G|-----------------------------------------------------------------------------------|
D|---4---4---4---4---4---3---3---4---7---7---7---7---4---4---4---4---4---4---4---4---|
A|-----------------------------------------------------------------------------------|
E|-2---2---2---2---2---2---1---2---0---0---0---0---2---2---2---2---2---2---2---2-----|

                                                CHORUS
                                                   H 
G|------------------------------------------------------4---4---6---6-----------------|
D|---4---4---3---4---7---7---7---7---4---4---4---4----------------------4---4---4---4-|
A|----------------------------------------------------2---2---4---4-------------------|x7
E|-2---2---1---2---0---0---0---0---2---2---2---2----------------------2---2---2---2---|

G|---4---4---6---------|
D|---------------------|
A|-2---2---4-----------|
E|--------------2-2----|


===============================================================================
Suggest correction
Give kudos to tab author, rate the tab!
1 2 3 4 5
comments
print report bad tab
guest
You may want to rate the tab now too:
select rating
Wanna post a correction for this tab? Suggest correction