Oops, an error
Loading. Please wait.

Hot Stuff Bass Tab

version 1
version 1

Whole song

Interactive

18,487 views 15 this week
no commentswrite comment
1 2 3 4 5
please rate
add to favorites
launch autoscroll
font size
0
reset
guitar tuner
Tab Pro tools
  • play this tab
  • loop segment
  • change instrument
  • show fretboard
  • metronome
×
Best way to learn
"Hot Stuff"
Autoscroll
slow
fast
+/-
esc
set tempo
stop
Contributor
ARTIST:DONNA SUMMER
SONG:HOT STUFF
TABBED BY:GARY HRICEWICH


 INTRO AND VERSE
G-------------------|---------|---------|
D-------------------|---------|---------|
A-------------------|---------|---------|
E---3-3-3-3-3-3-3-3-|-1-1-1-1-|-3-3-3-3-|


 LOOKING FOR SOME HOT STUFF/3X
G---|-----------------------|------------|
D---|*---------------------*|------------|
A---|*-3-3--5-5-5----------*|----3-----5-|
E---|--------------3-3-3-3--|------------|


 I NEED HOT STUFF       4X
G---|----------------------|
D---|*--------------------*|          "REPEAT ALL"!!
A---|*-----1--3--3-1------*|
E---|--3-3-----------------|


 LEAD GUITAR                                                         4X
G---|-------------------------------------------------------------------|
D---|*-----------------------------------------------------------------*|
A---|*-----------------1-1-1-1-1-1-1-1-3-3-3-3-3-3-3-3-1-1-1-1-1-1-1-1-*|
E---|--3-3-3-3-3-3-3-3--------------------------------------------------|


 HOT HOT HOT HOT STUFF                                   2X
G---|------------------|---------|--------------------------|
D---|*-----------------|---------|-------------------------*|
A---|*-----------------|---------|-------------------------*|
E---|--3-3-3-3-3-3-2-3-|-1-1-1-1-|-3-3-3-3------------------|


 HOW ABOUT SOME HOT STUFF// REPEAT AND FADE OUT
G---|------------------------------|
D---|*----------------------------*|
A---|*-3-3--5-5-5-----------------*|
E---|--------------3-3-3-3---------|
comments
We did not receive enough feedback on this tab! Please rate:
print report bad tab
1 2 3 4 5
I want to post or [tab]
guest
You may want to rate the tab now too:
select rating
Please do not post tabs as comments. Select "correction" instead!