Oops, an error
Loading. Please wait.

Hot Stuff Tab

version 1
version 1

Whole song

Interactive

89,413 views 180 this week
1 commentread comment
1 2 3 4 5
accurate
x 10
add to favorites
launch autoscroll
font size
0
reset
how to read this tab
guitar tuner
Tab Pro tools
  • play this tab
  • loop segment
  • change instrument
  • show fretboard
  • metronome
×
Best way to learn
"Hot Stuff"
Autoscroll
slow
fast
+/-
esc
set tempo
stop
Contributor
Difficulty
intermediate
Took me a while i played it all the way through and its kool!!!
Tabbed by, craig fryer

Intro Gm  Gm  F  Gm (repeat)

E-----------1-3-1-3-1---------------------------------|
B-------1-3-----------3-------------------------------|
G-0-2-3-----------------3--5-3-5-3-5-3-5-3-5-3-5b-3b--|
D-----------------------------------------------------|
A-----------------------------------------------------|
E-----------------------------------------------------|

Gm                     Gm
Sittin' here eatin' my heart out waitin'
F                         Gm
waitin' for some lover to call
Gm
dialed about a thousand numbers lately
F                             Gm
almost rang the phone off the wall


Chorus:

Gm               C         D         Gm
Looking for some hot stuff baby this evenin'
            C         D    Gm
I need some hot stuff baby tonight
Gm                    D         Gm
I want some hot stuff baby this evenin'
C
gotta have some hot stuff
D                      Gm Bb     C
gotta have some love tonight - hot stuff
Gm Bm    C               Gm  Bb
I need some hot stuff
C                  Gm   Bb
I want some hot stuff
C
I need hot stuff

Gm  Gm  F  Gm

E-----------1-3-1-3-1---------------------------------|
B-------1-3-----------3-------------------------------|
G-0-2-3-----------------3--5-3-5-3-5-3-5-3-5-3-5b-3---|b-    (Repeat)
D-----------------------------------------------------|
A-----------------------------------------------------|
E-----------------------------------------------------|

Gm
Lookin' for a lover who needs another
F                              Gm
don't want another night on my own
Gm
wanna share my love with a woman lover
F                            Gm
wanna bring a wild man back home

Gm              C         D         Gm
Gotta have some hot stuff baby this evening
            C         D      Gm
I need some hot stuff baby tonight
Gm          C         D            Gm
I want some hot stuff baby this evening
D               Gm Bb  C       Gm  Bb C
gotta have some loving - hot stuff
            Gm    Bb  C
I need some hot stuff
            Gm     Bb  C
I want some hot stuff
          D D
I need some hot stuff

Solo:

Gm  Gm  F  Gm (repeat)

be creative and use any of the frets in this sector and start on 12th fret G string
E----------------|
B--11-10---------|
G-12-11-10-------|
D-12-11-10-------|
A----------------|
E----------------|

NOTE: this is not the solo just be creative, it works


Sittin' here eatin' my heart out no reason won't spend another night on my own
I dialed about thousand numbers baby I'm bound to find somebody home
comments
print report bad tab
1 comment total.
0 reply
FOB_ROCK wrote on October 9 2009, 03:44 pm

Instead of A 3 At the end of the solo it an open g

I want to post or [tab]
guest
You may want to rate the tab now too:
select rating
Please do not post tabs as comments. Select "correction" instead!