Oops, an error
Loading. Please wait.

Calling Tab

version 1
version 1

Whole song

Interactive

13,818 views 42 this week
2 commentsread comments
1 2 3 4 5
excellent!
x 10
add to favorites
launch autoscroll
font size
0
reset
how to read this tab
guitar tuner
Tab Pro tools
  • play this tab
  • loop segment
  • change instrument
  • show fretboard
  • metronome
Autoscroll
slow
fast
+/-
esc
set tempo
stop
Contributor
Difficulty
Tuning
novice
D# G# C# F# A# D#
Artist: Donots
Song: Calling
Album: The Long Way Home (2010)
tabbed by: necriononguitar
e-mail (NO SPAM!): tim.rathgen@gmx.de

REAL FANS SUPPORT BANDS BY PURCHASING THEIR CD'S!!!


. = Palm-Muted
~ = hold note
^ = vibrate
p = pull off
h = hammer on
/ = slide up
\ = slide down
* = pinch

Tuning: Half-Step Down

RIFFS SIND UNTEN!


Am     F     C       G         1 
Am     F     C       E         1 

Am            F              C               G
All I want is everything, Is that too much to ask?
Am                F                 C              G
All I want is the here and now, the future and the past    2 

 Am         F           C                G
And this is the moment but this is dried and true      3     2 
    Am               F                  C         G
I'm being lonely, ain't no fun when I'm not with you     3 


            Am     F    C        G
I'm calling you        (Calling, Calling)       1 
Am     F     C            E
             Calling your name                  1 

Am            F                  C               G
All I want is one more chance to prove myself to you     3   4   2 
Am            F            C             G
All I know is I am best at what I do not do              3   4   2 

 Am          F          C             G
And this is the moment and this is seamy through         3   4   2 
    Am                 F               C        G
Now all that's left is to pretend, I'm calling you       3   4   2 

            Am     F    C        G
I'm calling you        (Calling, Calling)                1 
Am     F     C            G
             Calling your name                           1 
Am     F     C        G
            (Calling, Calling)                           5   1 
Am     F          C            E
          Now I'm calling your name                      1 


             Am
And can keep holding on to you                           6 
F or C                   A (major!)
        but I can barely hold my own                     6 

F    G                   Am
       I keep on holding on to you                       7    8 
F    G                Am
       and I can even hold my own                        7    9 

Am     F     C        G
            (Calling, Calling)                           1 
Am     F     C
             Calling your name                           1 
Am     F     C        G
            (Calling, Calling)                           1   10 
Am     F          C            E
          Now I'm calling your name                      1 


Am            F              C               G
All I want is everything, Is that too much to ask?            1   3 
Am                F                 C              G
All I want is the here and now, the future and the past       1   3 
               Am             F        C        G
But I can even hold my own            (Calling, Calling)      1   11 
Am     F          C            E
          Now I'm calling your name                           1   11 

 12 


RIFFS:   (Mit jeweiligen Zahlen makiert)
Riff 1    Synth spielt folgendes
E--------------------------------------------------------|
B---13--12--10------10-----------------------------------|
G---------------12------9-----12--7--9~------------------|
D--------------------------------------------------------|
A--------------------------------------------------------|
E--------------------------------------------------------|

Riff 2
E-----------------------------------|
B---13--12--13--12--13--12----------|
G-----------------------------------|
D-----------------------------------|
A-----------------------------------|
E-----------------------------------|

Riff 3
E-------------------------------------------------------------|
B-------------------------------------------------------------|
G-------------------------------------------------------------|
D---14-14-12-12-14-14-12-12-14-14-12-12-14-14-12-12-----------|
A-------------------------------------------------------------|
E-------------------------------------------------------------|
    .  .  .  .  .  .  .  .  .  .  .  .  .  .  .  .

Riff 4
E------------15~---------12~------------------|
B-------13~------------------13~--15~---------|
G---14~---------------------------------------|
D---------------------------------------------|
A---------------------------------------------|
E---------------------------------------------|

Riff 5
E--------------------------------------------------------------------------|
B---13--13---12--12---10--10-----------13--13--13--13--13--13--13--13------|
G------------------------------12--12--------------------------------------|
D--------------------------------------------------------------------------|
A--------------------------------------------------------------------------|
E--------------------------------------------------------------------------|

Riff 6    Guitar Solo     ()   = die seite wird nicht erneut angeschlagen
                          b1/2 = einen halben bund benden
E--------------------------------------------------------------------------|
B---------------------------------------------/10^^^^^^---(10)*^^^^^^^^^^--|
G------5--7b1/2~--^^^^--b9~----(b9)*(7b9)x\--------------------------------|
D---7~---------------------------------------------------------------------|
A--------------------------------------------------------------------------|
E--------------------------------------------------------------------------|

im bridge wird die 10 weiter gehalten und spielt dann folgendes:
E--------------------------|
B--(10^)--(10)\8~----------|
G--------------------------|
D--------------------------|
A--------------------------|
E--------------------------|

Riff 7     Interlude
E-----------------------------------------------------------------------------|
B--------5-----5-------------3-----3-------------5----8-5---6-5-------5-------|
G------5-----5---5---------5-----5---5---------5------------------5-7---7-5---|
D----3-----3-------3-----3-----3-------3-----7-----7------7-----7-----------7-|
A-----------------------------------------------------------------------------|
E-----------------------------------------------------------------------------|
     . . . . . . . .     . . . . . . . .     . . . .  . . . . . . . . . . . .

Riff 8
E----15~--12~--------------|
B--------------------------|
G--------------------------|
D--------------------------|
A--------------------------|
E--------------------------|

Riff 9
E----15*^^^^^^^^^^^^----------------|   Volume runter drehen, note anschlagen,
B-----------------------------------|   leicht pinchen, vibrato und
G-----------------------------------|   volume wieder aufdrehen
D-----------------------------------|
A-----------------------------------|
E-----------------------------------|

Riff 10
E--------------------------------------|
B----10--13--15--17~-------------------|
G--------------------------------------|
D--------------------------------------|
A--------------------------------------|
E--------------------------------------|

Riff 11    eine zweite gittare spielt die klammer im hintergrund
E------------------------------------------------------------|
B---10-10-10-10---13-15-17~---(10--13-15-17~)-13~-12~--------|
G------------------------------------------------------------|
D------------------------------------------------------------|
A------------------------------------------------------------|
E------------------------------------------------------------|

Riff 12
E--------------------------|
B---3~--5~-----------------|
G-----------5~-------------|
D--------------------------|
A--------------------------|
E--------------------------|


und das wars... Ich hoffe es hat geholfen, bitte ratet, kommentiert und verbessert mich!

Cheers...
comments
print report bad tab
2 comments total.
0 reply
emilbullforever wrote on May 25 2010, 08:11 am

danke für den tab, der wurde echt gebraucht ;D
und das solo sieht witzig aus, 2 töne, massig effekte xD

0 reply
Eiche09 wrote on April 24 2011, 07:49 am

thxs is echt genial :D

I want to post or [tab]
guest
You may want to rate the tab now too:
select rating
Please do not post tabs as comments. Select "correction" instead!