Oops, an error
Loading. Please wait.

Stop The Clocks chords

version 3
version 3

Whole song

Interactive

by Donots
406 views 1 this week
no commentswrite comment
1 2 3 4 5
2 more votes to show rating
add to favorites
×
Save as Personal and add changes to this tab that will be seen only by you. Learn more ›
×
You can save this tab as Personal to edit and correct it or add notes. All changes will be seen only by you. Learn more »
launch autoscroll
font size
0
reset
transpose
0
reset
display chords
guitar tuner
edit
Autoscroll
slow
fast
+/-
esc
set tempo
stop
Author
Difficulty
Strumming
There is no strumming pattern for this song yet. and get +5 IQ
-------------------------------------------------------------------------------
                             Stop The Clocks - Donots
-------------------------------------------------------------------------------

Tabbed by: jonis_m
Tuning: Standard

Standard tuning EADGBe. Alternatively, you can tune down all strings by one 
half-step and transpose the chords one half-tone higher to simplify the chords.
Except for the intro, you can use lower-fret variants of B and Bbm.

Intro:
  Bbm       Ebm                              B
e|-6--|----|-6-6---6-6-6---6-6-6---6-6-6---6|-7-7---7-7-7---7-7-7---7-7-7---7|
B|-6--|----|-7-7---7-7-7---7-7-7---7-7-7---7|-7-7---7-7-7---7-7-7---7-7-7---7|
G|-6--|----|-8-8---8-8-8---8-8-8---8-8-8---8|-8-8---8-8-8---8-8-8---8-8-8---8|
D|-8--|----|-8-8---8-8-8---8-8-8---8-8-8---8|-9-9---9-9-9---9-9-9---9-9-9---9|
A|-8--|----|-6-6---6-6-6---6-6-6---6-6-6---6|-9-9---9-9-9---9-9-9---9-9-9---9|
E|----|----|--------------------------------|--------------------------------|

Interlude:
  Ebm                              Gb
e|--------------------------------|--------------------------------|
B|--------------------------------|--------------------------------|
G|--------------------------------|--------------------------------|
D|-4-4---3-3-3---1-1-1---1-1-1---4|-4-4---3-3-3---1-1-1---1-1-1---4|
A|--------------------------------|--------------------------------|
E|--------------------------------|--------------------------------|

  Db                               B
e|--------------------------------|-----------------------------|
B|--------------------------------|-----------------------------|
G|--------------------------------|-----------------------------|
D|-4-4---3-3-3---1-1-1---1-1-1---1|-----------------------------|
A|--------------------------------|-2-2---2-2-2---2-2-2---2-2-2-|
E|--------------------------------|-----------------------------|

Verse:
Ebm                   Gb
Lies - demand another lie
                Db
No matter how I try
                   B
Wish I could disappear (I know myself, I know myself well enough)

Ebm                    Gb
Down - the only way is down
                     Abm
My face down on the ground
                 B                       Db
What am I doing here? (I know myself, I know myself well enough)


Refrain:
B                         Ebm
  And if I could stop the clocks
                            Bbm
If I could make this moment mine
                     Abm
I'd make the most of a bad time
B                         Ebm
  I wish I could stop the clocks
                     Bbm
And wash away those lies
                      Abm
It's all that I could wish for tonight


Interlude (Ebm Gb Db B)


Verse:
Ebm                    Gb
Down - the only way is down
                    Db
My face down on the ground
                 B
What am I doing here? (I know myself, I know myself well enough)

Ebm                               Gb
    And now my angels need angels
                                B
To help me get out of this hell
                          Db
I know myself well enough    to know that I don't know myself


Refrain


During solo:
Ebm B Gb Abm (8x)


Refrain


Interlude (Ebm Gb Db B)

Variation of Interlude (Ebm Gb Abm B)

            
            
Suggest correction
Creating personal tab
Creating personal tab
You can edit any tab online and save it as your Personal.

You can edit, replace or remove any tab part or add personal notes – all changes will be seen only by you.

Personal tabs can be accessed anytime from any device, even offline.
Learn more »
Give kudos to tab author, rate the tab!
1 2 3 4 5
comments
print report bad tab
guest
You may want to rate the tab now too:
select rating
Wanna post a correction for this tab? Suggest correction