Oops, an error
Loading. Please wait.

Were Not Gonna Take It Tab

version 2
version 2

Whole song

1,381 views 3 this week
no commentswrite comment
1 2 3 4 5
please rate
add to favorites
launch autoscroll
font size
0
reset
how to read this tab
guitar tuner
Tab Pro tools
  • play this tab
  • loop segment
  • change instrument
  • show fretboard
  • metronome
×
Best way to learn
"Were Not Gonna Take It"
Autoscroll
slow
fast
+/-
esc
set tempo
stop
Contributor
Difficulty
Tuning
novice
D# G# C# F# A# D#
Donots - We're not gonna take it

The other tab was right except of the bridge and it was tabbed in standard tuning. The 
original is tabbed in Half-Step-Down.. have fun ;)


Intro Part 1  |Part 2
Eb------------|-----------------------------------------------------|
Bb------------|-----------------------------------------------------|
Gb------------|---9----8----6----4--------9-----8-----6-----4-------|
Db---2~-------|---x----x----x----x--------x-----x-----x-----x-------|
Ab---2~-------|---7----6----4----2--------7-----6-----4-----2-------|
Eb---0~-------|-----------------------------------------------------|


Vers: Part 1               |Part 2
Eb-------------------------|-----------------------------------------|
Bb-------------------------|-----------------------------------------|
Gb--------4----------2-----|--------4---------4----------------------|
Db---2----4----2-----2-----|---2----4----2----4----------------------| x2
Ab---2----2----2-----0-----|---2----2----2----2----------------------|
Eb---0---------0-----------|---0---------0---------------------------|


Refrain
Eb-------------------------------------------------------------|
Bb-------------------------------------------------------------|
Gb-------4-------2-------4-------4-----------------------------|
Db---2---4---2---2---2---4---2---4-----------------------------|
Ab---2---2---2---0---2---2---2---2-----------------------------|
Eb---0-------0-------0-------0---------------------------------|

Bridge 1
Eb--------------------------------------------------|
Bb--------------------------------------------------|
Gb-------4---------2----------2-------Half-of-------|
Db--2----4----2----2----2-----2-----Intro-Part-2----|
Ab--2----2----2----0----2-----4---------------------|
Eb--0---------0---------0---------------------------|

Brigde 2
Eb-----------------|-------------------------------------------|
Bb-----------------|-------------------------------------------|
Gb--7-7-6-4--------|----------------4--------------------------|
Db--7-7-6-4--------|---2---3---4----4--------------------------|
Ab--5-5-4-2--------|---2---3---4----2--------------------------|
Eb-----------------|---0---1---2-------------------------------|

Refrain(2x)

Solo 1 (Refrain in the background)
Eb---------------------------------------------------------------------|
Bb--5-5---5-7----9-9-7-9-10-10--10\9-7-7-9-7-5-7-9--55554444-----------|
Gb------4-----4---------------------------------------------66664444---|
Db---------------------------------------------------------------------|
Ab---------------------------------------------------------------------|
Eb---------------------------------------------------------------------|

Bridge 2

Bridge 3..
Eb---------------------------------------------------------------------|
Bb---------------------------------------------------------------------|
Gb---------------4-----------------------------------------------------|
Db---2-------2---4-----------------------------------------------------|
Ab---2-------2---2-----------------------------------------------------|
Eb---0-------0---------------------------------------------------------|

Refrain (until it ends..)

Solo 2 (after refrain 2x)
Eb-----12---12---12---12-----------------------------------------------|
Bb--12b--12b--12b--12b------------couldn't-figure----------------------|
Gb-----------------------------------out-more--------------------------|
Db------------------------------------SORRY!---------------------------|
Ab---------------------------------------------------------------------|
Eb---------------------------------------------------------------------|
comments
We did not receive enough feedback on this tab! Please rate:
print report bad tab
1 2 3 4 5
I want to post or [tab]
guest
You may want to rate the tab now too:
select rating
Please do not post tabs as comments. Select "correction" instead!