Oops, an error
Loading. Please wait.

Ballad Of Geraldine Tab

version 2
version 2

Whole song

4,459 views 9 this week
no commentswrite comment
1 2 3 4 5
x 4
add to favorites
launch autoscroll
font size
0
reset
how to read this tab
guitar tuner
×
Best way to learn
"Ballad Of Geraldine"
Autoscroll
slow
fast
+/-
esc
set tempo
stop
Author
Capo
  follow
4th fret
My second tab! Didn't found any good tab on the internet for this song, so I'd give a 
I found it very hard tab this one. The first 2 sections are 100% accurate but the third is 
I simply can't hear what Donovan is doing in the song. Any further help would is appreciated!

Donovan - Ballad of Geraldine

CAPO 4

Chords
320000
032000
300210

e:|-----------------------------| |---------------------------|
B:|---0-----0--0--0-0---0—0--0-0| |-------0--0--0-0---0—0--0-0|
G:|---0-0---0---0---0-0--0-0---0| |---0---0---0---0-0--0-0---0|
D:|------0-------2-----2—-2-2---| |----0-------2-----2—-2-2---|
A:|--------3--------------------| |------3--------------------|
E:|-3---------------3----------3| |---------------3----------3|

        Ooh I was born..  with the name Geraldine…
e:|----------------------------|
B:|--------0--0----0h1---------|
G:|----0---0---0-------2-------|
D:|-----0-------2--------------|
A:|-------3--------------------|
E:|----------------------------|

These sequences are repeated the whole song and Donovan sometimes varies them, just 
to the song!

Good luck!
Suggest correction
comments
print report bad tab
guest
You may want to rate the tab now too:
select rating
Wanna post a correction for this tab? Suggest correction