Oops, an error
Loading. Please wait.

Jabberwocky tab

version 1
version 1

Whole song

by Donovan
376 views 1 this week
no commentswrite comment
1 2 3 4 5
3 more votes to show rating
add to favorites
×
Save as Personal and add changes to this tab that will be seen only by you. Learn more ›
×
You can save this tab as Personal to edit and correct it or add notes. All changes will be seen only by you. Learn more »
launch autoscroll
font size
0
reset
how to read this tab
guitar tuner
edit
Autoscroll
slow
fast
+/-
esc
set tempo
stop
Difficulty
intermediate
Jabberwocky
E  :----------------|----------------|----------------|----------------|
B  :-------3-------3|-------3-------3|-------3-------3|-------3-------3|
G  :-----2---2---2--|-2---2---2---2--|-2---0---0---0--|-0---0---0---0--|
D  :---0---0-2-3---2|-0-----2---0---0|-------0-------0|-------0-------0|
A  :0---------------|---3------------|---1-------0----|----------------|
E  :----------------|----------------|----------------|---3-------1----|

E  :----------------|----------------|----------------|----------------|
B  :-------3-------3|-------3-------3|-------3-------3|-------2-------2|
G  :-0---2---2---2--|-2---2---2---2--|-2---0---0---0--|-0---2---2---2--|
D  :---0---0-2-3---2|-0-----2---0---0|-------0-------0|-------2-------2|
A  :----------------|---3------------|---1------------|---0-------0----|
E  :----------------|----------------|-----------3----|----------------|

E  :----------------|
B  :----------------|
G  :-2--------------|
D  :----------------|
A  :----------------|
E  :----------------|    and repeat


couldn't find any real tabs, so this was learned by ear, an could probably use some improvement.



Twas brillig, and the slithy toves
Did gyre and gimble in the wabe.
All mimsey were the borogroves
And the mome raths outgrabe.
"Beware the Jabberwock, my son!
The jaws that bite, the claws that catch!
Beware the Jubjubb bird, and shun
The frumious Bandersnatch!"
He took his vorpal sword in hand:
Long time the manxome foe he sought
So rested he by the Tumtum tree,
And stood awhile in thought.
And as in uffish thought he stood,
The Jabberwock with eyes if flame
Came whiffling through the tulgeywood
And burbled as it came.
One, two! One, two! And through and through
The vorpal blade went sniker-snack!
He left it dead, and with its head
He went galumphing back.
"And hast thou slain the Jabberwock ?
Come to my arms, my beamish boy!
O frabjous day! Callooy, callay!"
He chortled in his joy.
'Twas brillig, and the slithy toves
Did gyre and gimble in the wabe.
All mimsey were the borogroves
And the mome raths outgrabe
Suggest correction
Creating personal tab
Creating personal tab
You can edit any tab online and save it as your Personal.

You can edit, replace or remove any tab part or add personal notes – all changes will be seen only by you.

Personal tabs can be accessed anytime from any device, even offline.
Learn more »
Give kudos to tab author, rate the tab!
1 2 3 4 5
comments
print report bad tab
guest
Wanna post a correction for this tab? Suggest correction