Oops, an error
Loading. Please wait.

Jennifer Juniper Tab

version 3
version 3

Whole song

  • This one's for those who'd like to play the song t... Show more

Interactive

10 views 1 this week
no commentswrite comment
1 2 3 4 5
2 more votes to show rating
add to favorites
launch autoscroll
font size
0
reset
how to read this tab
guitar tuner
Autoscroll
slow
fast
+/-
esc
set tempo
stop
Help us to improve Ultimate-Guitar.com Take our survey!
×
Author
Difficulty
Capo
intermediate
2nd fret
About this tab version
This one's for those who'd like to play the song the way Donovan actually did. Enjoy. Was this info helpful? Yes No
[Intro]

e|1-0-------------|1-0-------------|------0-1-0-----|----------------|
B|------1---------|------1---------|1---3-------3-1-|----------------|
G|2-0-------------|2-0-------------|------0-2-0-----|----0-----------|
D|------2---------|------2---------|2---3-------3-2-|----------------|
A|----------------|----------------|----------------|--------3-------|
E|----------------|----------------|----------------|----------------|


[Verse 1]

e|1-0-------0-----|1-0-------0-----|----------------|----------------|
B|----------------|----------------|3-----1-0-------|--0-------0-----|
G|2-0---0-------0-|2-0---0-------0-|----------2---0-|------0-------0-|
D|--------2-------|--------2-------|----0-------0---|----0-------0---|
A|----3-------3---|----3-------3---|----------------|----------------|
E|----------------|----------------|3-------3-------|3-------3-------|
  Jennifer         Juniper          lives upon a hill...

e|1-0-------0-----|1-0-------0-----|----------------|----------------|
B|----------------|----------------|3-----1-0-------|--0-------0-----|
G|2-0---0-------0-|2-0---0-------0-|----------2---0-|------0-------0-|
D|--------2-------|--------2-------|----0-------0---|----0-------0---|
A|----3-------3---|----3-------3---|----------------|----------------|
E|----------------|----------------|3-------3-------|3-------3-------|

e|----3-3-1-0-----|------0---------|----3-3-1-0-----|------0---------|
B|----------------|--3-------3-----|----------------|--3-------3-----|
G|--0-----------0-|----------------|--0-----------0-|----------------|
D|----2-------2---|----0-------0---|----2-------2---|----0-------0---|
A|3-------3-------|----------------|3-------3-------|----------------|
E|----------------|3-------3-------|----------------|3-------3-------|

e|----------------|----------------|------0-1-0-----|----------------|
B|----1-1-0-------|----------0---1-|----3-------3-1-|----------------|
G|--2-------2--(2)|0-0---2---------|------0-2-0-----|----0-----------|
D|----3-------3---|----0-------0---|----3-------3-2-|----------------|
A|----------------|----------------|3---------------|--------3-------|
E|1-------1-------|3-------3-------|----------------|----------------|


[Verse 2]

e|1-0-------0-----|1-0-------0-----|----------------|----------------|
B|----------------|----------------|3-----1-0-------|--0-------0-----|
G|2-0---0-------0-|2-0---0-------0-|----------2---0-|------0-------0-|
D|--------2-------|--------2-------|----0-------0---|----0-------0---|
A|----3-------3---|----3-------3---|----------------|----------------|
E|----------------|----------------|3-------3-------|3-------3-------|
  Jennifer         Juniper          rides a dappled mare...

e|1-0-------0-----|1-0-------0-----|----------------|----------------|
B|----------------|----------------|3-----1-0-------|--0-------0-----|
G|2-0---0-------0-|2-0---0-------0-|----------2---0-|------0-------0-|
D|--------2-------|--------2-------|----0-------0---|----0-------0---|
A|----3-------3---|----3-------3---|----------------|----------------|
E|----------------|----------------|3-------3-------|3-------3-------|

e|----3-3-1-0-----|------0---------|----3-3-1-0-----|------0---------|
B|----------------|--3-------3-----|----------------|--3-------3-----|
G|--0-----------0-|----------------|--0-----------0-|----------------|
D|----2-------2---|----0-------0---|----2-------2---|----0-------0---|
A|3-------3-------|----------------|3-------3-------|----------------|
E|----------------|3-------3-------|----------------|3-------3-------|

e|----------------|----------------|------0-1-0-----|----------------|
B|----1-1-0-------|----------0---1-|----3-------3-1-|------1---0-----|
G|--2-------2--(2)|0-0---2---------|------0-2-0-----|----0---------0-|
D|----3-------3---|----0-------0---|----3-------3-2-|------------0---|
A|----------------|----------------|3---------------|--------2-------|
E|1-------1-------|3-------3-------|----------------|----------------|
                                                         I'm thinking of...


[Bridge]

e|------0---------|----------------|----------------|----------------|
B|----------1-----|--1-------0-----|--1-------1-----|--1-------1-----|
G|--2-----------2-|------2-------0-|------0-------0-|------0-------0-|
D|----3-------3---|----3-------0---|----2-------2---|----2-------2---|
A|----------------|----------------|3-------3-------|3-------2-------|
E|1-------1-------|1-------3-------|----------------|----------------|
                   what it would be like...

e|3---------0-----|1-0-------------|1-0-------------|----------------|
B|----------------|----3-1---------|----3-1---0-----|----------0---1-|
G|------0-------0-|--------------2-|------------2---|0-----0-2-------|
D|----2-------2---|----3-------3---|----3-------3---|----0-------0---|
A|----------------|----------------|----------------|----------------|
E|0-------0-------|1-------1-------|1-------1-------|3-------3-------|

e|------0---1-----|
B|--3-------------|
G|----------------|
D|----0-------0---|
A|----------------|
E|3-------3-------|


[Verse 3]

e|1-0-------0-----|1-0-------0-----|----------------|----------------|
B|----------------|----------------|3-----1-0-------|--0-------0-----|
G|2-0---0-------0-|2-0---0-------0-|----------2---0-|------0-------0-|
D|--------2-------|--------2-------|----0-------0---|----0-------0---|
A|----3-------3---|----3-------3---|----------------|----------------|
E|----------------|----------------|3-------3-------|3-------3-------|
  Jennifer         Juniper          hair of golden flax...

e|1-0-------0-----|1-0-------0-----|----------------|----------------|
B|----------------|----------------|3-----1-0-------|--0-------0-----|
G|2-0---0-------0-|2-0---0-------0-|----------2---0-|------0-------0-|
D|--------2-------|--------2-------|----0-------0---|----0-------0---|
A|----3-------3---|----3-------3---|----------------|----------------|
E|----------------|----------------|3-------3-------|3-------3-------|

e|----3-3-1-0-----|------0---------|----3-3-1-0-----|------0---------|
B|----------------|--3-------3-----|----------------|--3-------3-----|
G|--0-----------0-|----------------|--0-----------0-|----------------|
D|----2-------2---|----0-------0---|----2-------2---|----0-------0---|
A|3-------3-------|----------------|3-------3-------|----------------|
E|----------------|3-------3-------|----------------|3-------3-------|

e|----------------|----------------|------0-1-0-----|----------------|
B|----1-1-0-------|----------0---1-|----3-------3-1-|----------------|
G|--2-------2--(2)|0-0---2---------|------0-2-0-----|----0---------0-|
D|----3-------3---|----0-------0---|----3-------3-2-|------------0---|
A|----------------|----------------|3---------------|----------------|
E|1-------1-------|3-------3-------|----------------|--------3-------|

e|------0-1-0-----|----------------|------0-1-0-----|----------------|
B|----3-------3-1-|----------------|----3-------3-1-|----------------|
G|------0-2-0-----|----0---------0-|------0-2-0-----|----0-----------|
D|----3-------3-2-|------------0---|----3-------3-2-|----------------|
E|3---------------|----------------|3---------------|--------3-------|
A|----------------|--------3-------|----------------|----------------|


[Verse 4]

e|1-0-------0-----|1-0-------0-----|----------------|----------------|
B|----------------|----------------|3-----1-0-------|--0-------0-----|
G|2-0---0-------0-|2-0---0-------0-|----------2---0-|------0-------0-|
D|--------2-------|--------2-------|----0-------0---|----0-------0---|
A|----3-------3---|----3-------3---|----------------|----------------|
E|----------------|----------------|3-------3-------|3-------3-------|
  Jennifer         Juniper          vit sur la colline...

e|1-0-------0-----|1-0-------0-----|----------------|----------------|
B|----------------|----------------|3-----1-0-------|--0-------0-----|
G|2-0---0-------0-|2-0---0-------0-|----------2---0-|------0-------0-|
D|--------2-------|--------2-------|----0-------0---|----0-------0---|
A|----3-------3---|----3-------3---|----------------|----------------|
E|----------------|----------------|3-------3-------|3-------3-------|

e|----3-3-1-0-----|------0---------|----3-3-1-0-----|------0---------|
B|----------------|--3-------3-----|----------------|--3-------3-----|
G|--0-----------0-|----------------|--0-----------0-|----------------|
D|----2-------2---|----0-------0---|----2-------2---|----0-------0---|
A|3-------3-------|----------------|3-------3-------|----------------|
E|----------------|3-------3-------|----------------|3-------3-------|

e|----------------|----------------|------0-1-0-----|----------------|
B|----1-1-0-------|----------0---1-|----3-------3-1-|----------------|
G|--2-------2--(2)|0-0---2---------|------0-2-0-----|----0---------0-|
D|----3-------3---|----0-------0---|----3-------3-2-|------------0---|
A|----------------|----------------|3---------------|----------------|
E|1-------1-------|3-------3-------|----------------|--------3-------|

e|------0-1-0-----|----------------|------0-1-0-----|----------------|
B|----3-------3-1-|----------------|----3-------3-1-|----0---1-------|
G|------0-2-0-----|----0---------0-|------0-2-0-----|----0---0-------|
D|----3-------3-2-|------------0---|----3-------3-2-|----------------|
E|3---------------|----------------|3---------------|--------3-------|
A|----------------|--------3-------|----------------|----3-----------|


************************************

| (n) Ghost note

************************************
Suggest correction
Give kudos to tab author, rate the tab!
1 2 3 4 5
comments
print report bad tab
guest
You may want to rate the tab now too:
select rating
Wanna post a correction for this tab? Suggest correction