Oops, an error
Loading. Please wait.

Josie Tab

version 1
version 1

Whole song

Interactive

40 views 3 this week
no commentswrite comment
1 2 3 4 5
3 more votes to show rating
add to favorites
launch autoscroll
font size
0
reset
how to read this tab
guitar tuner
Autoscroll
slow
fast
+/-
esc
set tempo
stop
Help us to improve Ultimate-Guitar.com Take our survey!
×
Author
Difficulty
Capo
intermediate
5th fret
The structure of the song is simple, the Intro, Solo and the Verses are basically the same,
repeating over and over again.

Donovan's guitar is tuned down half a semi-tone (quarter step).

[Intro]
E|----3---3-3---3-3-3---3-----3---3-3---3---3---3-|
B|----3---3-3---3-3-3---3-----3---3-3---3---3---3-|
G|----0---0-0---0-0-0---0-----0---0-0---0---0---0-|
D|0-----------0-------2---0-----------0--(2)-(0)--|
A|----------------------------------------3---2---|
E|------------------------------------------------|

E|----2-2-----2-2-----2-2---2---2---------3-3---------3-3------3-3-|
B|----3-3-----3-3-----3-3---3---3---------3-3---------3-3------3-3-|
G|----2-2-----2-2-----2-2---2---2---------0-0-----0------------0-0-|
D|--------0---------------------------0-------2--------------------|
A|0--------------------------------------------------------0h2-----|
E|----------------2-------0---2---3--------------------------------|

[Verse/Solo]
E|------3---3---3-----3-3-----3-3-----3-3---3---3-|
B|------3---3---3-----3-3-----3-3-----3-3---3---3-|
G|------0---0---0-----0-0-----0-0-----0-0---0---0-|
D|----0-------0---2-------0-------0------(2)-(0)--|
A|----------------------------------------3---2---|
E|3-------3---------------------------------------|

E|----2-2-----2-2-----2-2---2---2---------3-3---------3-3------3-3-|
B|----3-3-----3-3-----3-3---3---3---------3-3---------3-3------3-3-|
G|----2-2-----2-2-----2-2---2---2---------0-0-----0------------0-0-|
D|--------0---------------------------0-------2--------------------|
A|0--------------------------------------------------------0h2-----|
E|----------------2-------0---2---3--------------------------------|

E|------3---3---3-----3-3-----3-3-----3-3---3---3-|
B|------3---3---3-----3-3-----3-3-----3-3---3---3-|
G|------0---0---0-----0-0-----0-0-----0-0---0---0-|
D|----0-------0---2-------0-------0------(2)-(0)--|
A|----------------------------------------3---2---|
E|3-------3---------------------------------------|

                                       *
E|----2-2-----2-2-----2-2---2---2---------3-3---------3-3------3-3-|
B|----3-3-----3-3-----3-3---3---3---------3-3---------3-3------3-3-|
G|----2-2-----2-2-----2-2---2---2---------0-0-----0------------0-0-|
D|--------0---------------------------0-------2--------------------|
A|0--------------------------------------------------------0-------|
E|----------------2-------0---2---3--------------------------------|

* In the last verse, from here continue with outro

[Outro]
E|--------3-3---------------------|
B|--------3-3---------------------|
G|--------0-0-----0---------------|
D|----0-------2-------------------|
A|--------------------------------|
E|3-------------------------------| 

 
************************************

| h  Hammer-on 

************************************
Suggest correction
Give kudos to tab author, rate the tab!
1 2 3 4 5
comments
print report bad tab
guest
You may want to rate the tab now too:
select rating
Wanna post a correction for this tab? Suggest correction