Oops, an error
Loading. Please wait.

Oh Deed I Do tab

version 2
version 2

Whole song

by Donovan
28 views 1 this week
no commentswrite comment
1 2 3 4 5
3 more votes to show rating
add to favorites
×
Save as Personal and add changes to this tab that will be seen only by you. Learn more ›
×
You can save this tab as Personal to edit and correct it or add notes. All changes will be seen only by you. Learn more »
launch autoscroll
font size
0
reset
how to read this tab
guitar tuner
edit
Autoscroll
slow
fast
+/-
esc
set tempo
stop
Capo 3rd fret.

Measures 1-4 is the intro.
Repeat measures 5-12.

[Intro]
 1                 2                 3                 4 
e|-----------------|-----------------|-----------------|-----------------|
B|-5-----5---------|-5-----5---------|-5-----5---------|-5-----5---------|
G|---2-------2-----|---2-------2-----|---2-------2-----|---2-------2-----|
D|-----2-------2---|-----2-------2---|-----2-------2---|-----2-------2---|
A|-0-------0-------|-0-------0-------|-0-------0-------|-0-------0-------|
E|-----------------|-----------------|-----------------|-----------------|

[Verse]                                      
 5                 6                 7                 8
e|-----------------|-----------------|-----------------|-----------------|
B|-5-----5---------|-5-----5---3-----|-3-----2---------|-2-----2---------|
G|---2-------2-----|---2-------------|---0-------0-----|---0-------0-----|
D|-----2-------2---|-----2-------2---|-----2-------2---|-----2-------2---|
A|-0-------0-------|-0-------0-------|-0-------0-------|-0-------0-------|
E|-----------------|-----------------|-----------------|-----------------|
                                      
 9                 10                11                12
e|-----------------|-----------------|-----------------|-----------------|
B|-3-----3---------|-------3---------|-3-----2---------|-2-----2---------|
G|---2-------2-----|---0-------0-----|---0-------0-----|---0-------0-----|
D|-----4-------4---|-----3-------3---|-----2-------2---|-----2-------2---|
A|-0-------0-------|-1-------1-------|-0-------0-------|-0-------0-------|
E|-----------------|-----------------|-----------------|-----------------|


Options for measures 7 and 11

  Hammer-On         Slide/Pull-Off    Pull-Off        
e|-----------------|-----------------|-----------------|
B|-0h2---2---------|-3\2---2---------|-3p0---2---------|
G|-----------0-----|-----------0-----|-----------0-----|
D|-----2-------2---|-----2-------2---|-----2-------2---|
A|-0-------0-------|-0-------0-------|-0-------0-------|
E|-----------------|-----------------|-----------------|


Optional roll for measure 5 to 6
 
e|-----------------|-----------------|
B|-5-----5-------5-|-------5---3-----|
G|---2-------2-----|---2-------------|
D|-----2-------2---|-----2-------2---|
A|-0-------0-------|-0-------0-------|
E|-----------------|-----------------|


************************************

\ Slide down 
h Hammer-on 
p Pull-off

************************************



I'd recommend to play the song as follows:

The thumb plays the A-string and the D-string.
The indexfinger plays the G-string  
The middlefinger plays the B-string.

In the descripton i'm counting "1 and 2 and 3 and 4 and" per measure.

Measure 5-6 (and intro measure 1-4)
Grab the D-string and the G-string with a barre of the indexfinger at the second fret and 
finger the B-string at the fifth fret with the little finger.
In measure 6 between the count of 3 and 3and lift the little finger while fingering the 
B-string at the third fret with the middlefinger. Personally i start pressing the middlefinger
somewhere in measure 5.

Measure 7-8
Lift the barre but keep the fingertip of the indexfinger at the D-string at the second fret,
while the middlefinger stays in place. The same time the indexfinger plays the G-string (at 1and),
let the middlefinger slide from third to second fret.

Measure 9
Bring the middlefinger back to the third fret, finger the second fret of the G-string with
the indexfinger and the fourth fret of the D-string with the ringfinger. After the thumb
hits the D-string the second time, slide the ringfinger down to the third fret (at 4and).
This slide should absolutely be heard.

Measure 10
The indexfinger now presses the A-string at the first fret, while the little finger presses
the B-string at the third fret and the ringfinger stays in place. Again at 4and the ringfinger
should slide furtherdown to the second fret.

Measure 11 and 12
The indexfinger lifts so the A-string is left open. If not already happend, now press the D-string
at the second fret with your ringfinger, while the little finger stays at the third fret. 
At 1and slide the little finger from the third to the second fret of the B-string.
At the end of measure 12 slide the little finger up to the fifth fret so it is there when you
continue at measure 5.

With this fingerings you have a nice round loop of grips with a lot of anchors to guide you 
through the song.

            
            
Suggest correction
Creating personal tab
Creating personal tab
You can edit any tab online and save it as your Personal.

You can edit, replace or remove any tab part or add personal notes – all changes will be seen only by you.

Personal tabs can be accessed anytime from any device, even offline.
Learn more »
Give kudos to tab author, rate the tab!
1 2 3 4 5
comments
print report bad tab
guest
You may want to rate the tab now too:
select rating
Wanna post a correction for this tab? Suggest correction