Oops, an error
Loading. Please wait.

The Entertaining Of A Shy Girl tab

by Donovan
376 views 12 this week
no commentswrite comment
1 2 3 4 5
3 more votes to show rating
add to favorites
×
Save as Personal and add changes to this tab that will be seen only by you. Learn more ›
×
You can save this tab as Personal to edit and correct it or add notes. All changes will be seen only by you. Learn more »
launch autoscroll
font size
0
reset
how to read this tab
guitar tuner
edit
Autoscroll
slow
fast
+/-
esc
set tempo
stop
Author
Difficulty
[VERSE]

All the verses are the same.
When you reach the star (*) in the last verse, go to the outro.

e|----0-----------|----------------|----0---------0-|----------------|
B|----------1---1-|--1-------1-----|----------1-----|--1-------1-----|
G|----0-------0---|2-------1-------|----0-------0---|2-------1-------|
D|----------------|----------------|----------------|----------------|
A|3-------3-------|0-------0-------|3-------3-------|0-------0-------|
E|----------------|----------------|----------------|----------------|

                                                    *
e|----0-----------|----------------|3---1---0-------|----------------|3---------------|
B|----------1---1-|--1-------1-----|------------3---|1---0--------0-3|----------------|
G|----0-------0---|2-------1-------|--0---0---0---0-|--0---0-2---0---|----------------|
D|----------------|----------------|----------------|----------0-----|----------------|
A|3-------3-------|0-------0-------|----------------|----------------|----------------|
E|----------------|----------------|3---3---3---3---|3---3---3-------|----------------|


[OUTRO]

e|----------0-1-0-|--0-------------|
B|1---0---1-------|3---------------|
G|--0-------------|----------------|
D|----------------|----------------|
A|--------3-------|----------------|
E|3---3-----------|----------------|


[Verse 1]

I'll sing you a song,
Paint you a painting,
Dance you a dance
While you're waiting.


[Verse 2]

What shall it be,
Chocolate or soda?
I'm having tea,
Do speak louder.


[Verse 3]

Are you hungry?
Brown bread and treacle,
Apple maybe?
I've a tree full.


[Verse 4]

What do you know?
What can you tell me?
Something to show
Or to sell me.


[Verse 5]

Ah, here he's coming now,
I'll say cheerio.
Someone to meet
And she's waiting so I'll go.


[Outro]
Suggest correction
Creating personal tab
Creating personal tab
You can edit any tab online and save it as your Personal.

You can edit, replace or remove any tab part or add personal notes – all changes will be seen only by you.

Personal tabs can be accessed anytime from any device, even offline.
Learn more »
Give kudos to tab author, rate the tab!
1 2 3 4 5
comments
print report bad tab
guest
You may want to rate the tab now too:
select rating
Wanna post a correction for this tab? Suggest correction