Oops, an error
Loading. Please wait.

The Song Of Wandering Aengus Tab

16 views 3 this week
no commentswrite comment
1 2 3 4 5
3 more votes to show rating
add to favorites
launch autoscroll
font size
0
reset
how to read this tab
guitar tuner
Autoscroll
slow
fast
+/-
esc
set tempo
stop
Help us to improve Ultimate-Guitar.com Take our survey!
×
Author
Difficulty
intermediate
[Intro]
e|------0-------0-|------0---------|------0-------0-|------0---------|
B|----1-------1---|----1-----------|----1-------1---|----1-----------|
G|--2-------2-----|--2-------2--(2)|--2-------2-----|--2-------2--(2)|
D|----2-------2---|----2-----------|----2-------2---|----2-----------|
A|0-------0-------|0---------------|0-------0-------|0---------------|
E|----------------|--------0---3---|----------------|--------0---3---|

[Verse]
e|------0-------0-|------0-------0-|------3-------3-|------3-------3-|
B|----1-------1---|----1-------1---|----0-------0---|----0-------0---|
G|--2-------2-----|--2-------2-----|--0-------0-----|--0-------0-----|
D|----2-------2---|----2-------2---|----0-------0---|----0-------0---|
A|0-------0-------|0-------0-------|----------------|----------------|
E|----------------|----------------|3-------3-------|3-------3-------|
  I went out...

e|------3-------3-|------3-------3-|------3-------3-|------1-------1-|
B|----0-------0---|----0-------0---|----0-------0---|----3-------3---|
G|--0-------0-----|--0-------0-----|--0-------0-----|--2-------2-----|
D|----0-------0---|----0-------0---|----------------|0---------------|
A|----------------|----------------|3-------2-------|--------0-------|
E|3-------3-------|3-------3-------|----------------|----------------|

e|------1-------1-|------1-------1-|------1-------1-|------0-------0-|
B|----3-------3---|----3-------3---|----3-------3---|----1-------1---|
G|--2-------2-----|--2-------2-----|--2-------2-----|--0-------0-----|
D|0---------------|0---------------|0---------------|----------------|
A|--------0-------|--------0-------|--------0-------|3-------2-------|
E|----------------|----------------|----------------|----------------|              
                                                                     
e|------0-------0-|------0---------|------0-------0-|------3-------3-|
B|----1-------1---|----1-----------|----1-------1---|----0-------0---|
G|--2-------2-----|--2-------2--(2)|--2-------2-----|--0-------0-----|
D|0h2---------2---|----2-----------|----2-------2---|----0-------0---|
A|--------0-------|0---------------|0-------0-------|----------------|
E|----------------|--------0---3---|----------------|3-------3-------|

e|------0-------0-|------0---------|------0-------0-|------0---------|
B|----1-------1---|----1-----------|----1-------1---|----1-----------|
G|--2-------2-----|--2-------2--(2)|--2-------2-----|--2-------2--(2)|
D|----2-------2---|----2-----------|----2-------2---|----2-----------|
A|0-------0-------|0---------------|0-------0-------|0---------------|
E|----------------|--------0---3---|----------------|--------0---3---|

[Outro]
e|------0-------0-|------0-------0-|----3-0-----3-0-|----3-0-----3-0-|
B|----0-------0---|----0-------0---|----------------|----------------|
G|--2-------2-----|--2-------2-----|--2-------2-----|--2-------2-----|
D|----2-------2---|----2-------2---|----2-------2---|----2-------2---|
A|0-------0-------|0-------0-------|0-------0-------|0-------0-------|
E|----------------|----------------|----------------|----------------|

e|----2-0-----2-0-|----2-0-----2-0-|----1-0-----1-0-|----1-0-----1-0-|
B|----------------|----------------|----------------|----------------|
G|--2-------2-----|--2-------2-----|--2-------2-----|--2-------2-----|
D|----2-------2---|----2-------2---|----2-------2---|----2-------2---|
A|0-------0-------|0-------0-------|0-------0-------|0-------0-------|
E|----------------|----------------|----------------|----------------|

e|------0-------0-|------0-------0-|----3-0-----3-0-|----3-0-----3-0-|
B|----0-------0---|----0-------0---|----------------|----------------|
G|--2-------2-----|--2-------2-----|--2-------2-----|--2-------2-----|
D|----2-------2---|----2-------2---|----2-------2---|----2-------2---|
A|0-------0-------|0-------0-------|0-------0-------|0-------0-------|
E|----------------|----------------|----------------|----------------|

e|----2-0-----2-0-|----2-0-----2-0-|----1-0-----1-0-|----1-0-----1-0-|
B|----------------|----------------|----------------|----------------|
G|--2-------2-----|--2-------2-----|--2-------2-----|--2-------2-----|
D|----2-------2---|----2-------2---|----2-------2---|----2-------2---|
A|0-------0-------|0-------0-------|0-------0-------|0-------0-------|
E|----------------|----------------|----------------|----------------|
 
 (play slowly)
e|--------0-------|
B|----1-0-1-------|
G|--2-----2-------|
D|--------2-------|
A|0-------0-------|
E|----------------|

I went out to the hazel wood,
Because a fire was in my head,
And I cut and peeled a hazel wand,
And hooked a berry with a thread;

And when white moths were on the wing,
And moth-like stars were flickering out,
I dropped the berry in a stream
And caught a little silver trout.

When I had laid it on the floor
I went to blow the fire a-flame,
But something rustled on the floor,
And someone called me by my name.

It had become a glimmering girl
With apple blossom in her hair
Who called me by my name and ran
And faded through the brightening air.

Though I am old with wandering
Through hollow lands and hilly lands,
I will find out where she has gone,
And kiss her lips and take her hands;

And walk among long dappled grass,
And pluck till time and times are done,
The silver apples of the moon,
The golden apples of the sun.

************************************

| (n)  Ghost note
| h    Hammer-on

************************************
Suggest correction
Give kudos to tab author, rate the tab!
1 2 3 4 5
comments
print report bad tab
guest
You may want to rate the tab now too:
select rating
Wanna post a correction for this tab? Suggest correction