Oops, an error
Loading. Please wait.

Why Do You Treat Me Like You Do Tab

7 views 1 this week
no commentswrite comment
1 2 3 4 5
2 more votes to show rating
add to favorites
launch autoscroll
font size
0
reset
how to read this tab
guitar tuner
Autoscroll
slow
fast
+/-
esc
set tempo
stop
Help us to improve Ultimate-Guitar.com Take our survey!
×
Author
Difficulty
Capo
intermediate
4th fret
About this tab version
This song is a bit tricky, because it's not the basic strumming. Was this info helpful? Yes No
[Intro]

e|------3---3---3-|------3---3---3-|--3---3---3---3-|------3---3---3-|
B|------1---1---1-|------1---1---1-|--1---1---1---1-|------1---1---1-|
G|------0---0---0-|------0---0---0-|--0---0---0---0-|------0---0---0-|
D|----2-------2---|----2-------2---|----2-------2---|----2-------2---|
A|3---------------|3---------------|3---------------|3---------------|
E|--------3-------|--------3-------|--------3-------|--------3-------|


[Verse]

When you reach the star (*) in the last verse, play the outro.

e|------3---3---3-|------3---3---3-|----------0---0-|------0---0---0-|
B|------1---1---1-|------1---1---1-|----------0---0-|------0---0---0-|
G|------0---0-----|------0---0---0-|----0h1---1---1-|------1---1---1-|
D|----2-------2---|----2-------2---|------------2---|----0-------0---|
A|3---------------|3---------------|2---------------|2---------------|
E|--------3-------|--------3-------|--------0-------|--------0-------|

e|------1---1---1-|------1---1---1-|------3---3---3-|------1---1---1-|
B|------1---1---1-|------1---1---1-|------1---1---1-|------0---0---0-|
G|------2---2---2-|------2---2---2-|----0-------0---|------0---0---0-|
D|----3-------3---|----3-------3---|----------------|----0-------0---|
A|3---------------|3---------------|3---------------|2---------------|
E|--------1-------|--------1-------|--------3-------|--------3-------|

e|------3---3---3-|------3---3---3-|----------0---0-|------0---0---0-|
B|------1---1---1-|------1---1---1-|----------0---0-|------0---0---0-|
G|------0---0---0-|------0---0---0-|----0h1---1---1-|------1---1---1-|
D|----2-------2---|----2-------2---|------------2---|----0-------0---|
A|3---------------|3---------------|2---------------|2---------------|
E|--------3-------|--------3-------|--------0-------|--------0-------|

e|------1---1---1-|------1---1---1-|--------3-3---3-|----3-3---3---3-|
B|------1---1---1-|------1---1---1-|--------0-0---0-|----0-0---0-0-0-|
G|------2---2---2-|------2---2---2-|--------0-0---0-|----0-0---0-0-0-|
D|----3-------3---|----3-------3---|----0-------2---|3-----------3---|
A|3---------------|3---------------|----------------|----------------|
E|--------1-------|--------1-------|3---------------|--------3-------|

e|------3---3---3-|------3---3---3-|------3---3---3-|------3---3---3-|
B|------1---1---1-|------1---1---1-|------1---1---1-|------1---1---1-|
G|------0---0---0-|------0---0---0-|------3---3---3-|------3---3---3-|
D|----2-------2---|----2-------2---|----2-------2---|----2-------2---|
A|3---------------|3---------------|3---------------|3---------------|
E|--------3-------|--------3-------|--------3-------|--------3-------|

e|------1---1---1-|------1---1---1-|------3---3---3-|----------------|
B|------1---1---1-|------1---1---1-|------0---0---0-|----------------|
G|------2---2---2-|------2---2---2-|------0---0---0-|----------------|
D|----3-------3---|----3-------3---|----0-------2---|----3---2---0---|
A|3---------------|3---------------|2---------------|2---------------|
E|--------1-------|--------1-------|--------3-------|----------------|

e|------3---3---3-|------3---3---3-|----------0---0-|------0---0---0-|
B|------1---1---1-|------1---1---1-|----------0---0-|------0---0---0-|
G|------0---0-----|------0---0---0-|----0h1---1---1-|------1---1---1-|
D|----2-------2---|----2-------2---|------------2---|----0-------0---|
A|3---------------|3---------------|2---------------|2---------------|
E|--------3-------|--------3-------|--------0-------|--------0-------|

e|------1---1---1-|------1---1---1-|------3---3---3-|------3---3---3-|
B|------1---1---1-|------1---1---1-|------1---1---1-|------1---1---1-|
G|------2---2---2-|------2---2---2-|----0-------0---|----0-------0---|
D|----3-------3---|----3-------3---|----------------|----------------|
A|3---------------|3---------------|3---------------|3---------------|
E|--------1-------|--------1-------|--------3-------|--------3-------|

                  *
e|------3---3---3-|------3---3---3-|
B|------1---1---1-|------1---1---1-|
G|----0-------0---|----0-------0---|
D|----------------|----------------|
A|3---------------|3---------------|
E|--------3-------|--------3-------|


[Outro]

e|------3---3---3-|----------------|
B|------1---1---1-|----------------|
G|----0-----------|----------------|
D|----------------|----------------|
A|3-----------0---|3---------------|
E|--------3-------|----------------|


************************************

| h   Hammer-on

************************************
Suggest correction
Give kudos to tab author, rate the tab!
1 2 3 4 5
comments
print report bad tab
guest
You may want to rate the tab now too:
select rating
Wanna post a correction for this tab? Suggest correction