Oops, an error
Loading. Please wait.

Portland Maine chords

version 1
version 1

Whole song

3,196 views 75 this week
no commentswrite comment
1 2 3 4 5
x 3
add to favorites
×
Save as Personal and add changes to this tab that will be seen only by you. Learn more ›
×
You can save this tab as Personal to edit and correct it or add notes. All changes will be seen only by you. Learn more »
launch autoscroll
font size
0
reset
transpose
0
reset
simplify chords
display chords
guitar tuner
edit
Autoscroll
slow
fast
+/-
esc
set tempo
stop
Strumming
There is no strumming pattern for this song yet. and get +5 IQ
Custom Tuning
F  A  D  G  B  E

-Raise the low E string a semitone, so you have more freedom playing the low F.

Capo 4th fret

I'm aware the chord naming looks simpler than what it is. Play the song like the tab below and use the 
chord naming as guidance for the lyrics.



Verse (main)
     Am               G                           F
E----------3--3--3---------3--3--3--3----3--3-----------3---3--3-----3---3--3-----3--3---------
B----------1--1--1---------1--1--1--1p0--0--0-----------1---1--1-----1---1--1-----1--1---------
G----------0--0--0---------0--0--0--0----0--0-----------0---0--0h2---2---2--2p0---0--0---------
D----0h2-------------------0--0--0--0----0--0-----x-----x---x--x-----x---x--x-----x--x---------
A----0----------------x---------------------------3--------------------------------------------
F---------------------2---------------------------0--------------------------------------------


Verse Alternative (marked)
     Am               G                           F *
E----------3--3--3---------3--3--3--3----3--3-----------3---3--3----------3-------------3--3------
B----------1--1--1---------1--1--1--1p0--0--0-----------1---1--1----------1-------------1--1------
G----------0--0--0---------0--0--0--0----0--0-----------0---0--0----0---------0--0---0--0--0------
D----0h2-------------------0--0--0--0----0--0-----x-----x---x--x----0---------0--0h2-0------------
A----0----------------x---------------------------3-----------------------------------------------
F---------------------2---------------------------0-----------------------------------------------


Chorus
     Am               G                           F               C              C/B
E----------3--3--3---------3--3--3--3----3--3-----------3--3--3---3-----3--3--3-------3--3-----------
B----------1--1--1---------1--1--1--1----1--1-----------1--1--1---1-----1--1--1-------1--1-----------
G----------0--0--0---------0--0--0--0----0--0-----------0--0--0---0-----0--0--0--0----0--0-----------
D----0h2-------------------0--0--0--0----0--0-----x-----x--x--x---0h2------------0-------------------
A----0----------------x------------0h2------------3---------------3--------------2-------------------
F---------------------2---------------------------0---------------x----------------------------------



Am   G    F 
Am   G    F 


Am               G                             F
   I don't wanna be talking on the phone every night
Am       G                        F *
   6 pm, which timezone, yours or mine?
Am                   G                             F
   Ain't gonna worry where ya are, who you're with
Am               G              F
   Let's just agree this is it


               Am   G                            F      C  (C/B)
Portland, Maine -     I don't know where that is
Am                 G                        F       C  (C/B)
   Leave your bags in the car, keep it running
            Am   G                     F        C
I won't pretend    that I want these things
   (C/B)         Am   G                             F     C
But Portland, Maine -   I don't know where that is
                  G 
And I don't wanna know
              F
I don't wanna know


Am   G    F 
Am   G    F 


Am                      G                                 F       
   See, I'm just saving us some trouble somewhere down the line
Am              G                     F
   This kind of town you just leave behind
      Am                G                      F *
Since you don't know yet, but you won't come back
Am                   G                 F
   And I ain't going nowhere, you know that



               Am   G                            F      C  (C/B)
Portland, Maine -     I don't know where that is
Am                 G                        F       C  (C/B)
   Leave your bags in the car, keep it running
            Am   G                     F        C
I won't pretend    that I want these things
   (C/B)         Am   G                             F     C
But Portland, Maine -   I don't know where that is

G                                                 F
  And you can go ahead and hate me, that's just fine
G                                   F...
  It doesn't matter either way, I'm right


Am    G     F     C  
Am    G     F     C


               Am   G                            F      C  (C/B)
Portland, Maine -     I don't know where that is
Am                 G                        F       C  (C/B)
   Leave your bags in the car, keep it running
            Am   G                     F        C
I won't pretend    that I want these things
   (C/B)         Am   G                             F     C
But Portland, Maine -   I don't know where that is
              Am   G                             F     C
Portland, Maine -   I don't know where that is
Am     G     F     C
                  Am      G      F      C
And I don't wanna know
              Am      G      F      C...
I don't wanna know


            
            
Suggest correction
Creating personal tab
Creating personal tab
You can edit any tab online and save it as your Personal.

You can edit, replace or remove any tab part or add personal notes – all changes will be seen only by you.

Personal tabs can be accessed anytime from any device, even offline.
Learn more »
Give kudos to tab author, rate the tab!
1 2 3 4 5
comments
print report bad tab
guest
You may want to rate the tab now too:
select rating
Wanna post a correction for this tab? Suggest correction