Oops, an error
Loading. Please wait.

What Kind Of Love Is That chords

31 views 3 this week
no commentswrite comment
1 2 3 4 5
3 more votes to show rating
add to favorites
×
Save as Personal and add changes to this tab that will be seen only by you. Learn more ›
×
You can save this tab as Personal to edit and correct it or add notes. All changes will be seen only by you. Learn more »
launch autoscroll
font size
0
reset
transpose
0
reset
display chords
guitar tuner
edit
Autoscroll
slow
fast
+/-
esc
set tempo
stop
About this tab version
The whole song is played over a D chord, so you can play the chords listed and it will sound fine, but what he's doing is the bass notes over a D chord, similar to the tabbed out intro and interlude. Was this info helpful? Yes No
Strumming
There is no strumming pattern for this song yet. and get +5 IQ
[Intro]

E|--------------------------------------------------------------------------|
B|-----3--3--3--3-------3--3-------3--3-----3--3--3--3-------3--3-----3--3--|
G|-----2--2--2--2-------2--2-------2--2-----2--2--2--2-------2--2-----2--2--|
D|--0--------------0h3-------------------0----------------------------------|
A|----------------------------0h3-----------------------0h3-----------------|
E|-----------------------------------------------------------------3--------|

[Verse]
D
What kind of love is that
C                    G
What kind of love is that
D                         C    G
What kind of love is that
       D
Did it find you in the dark one night
       C                    G
Did it whisper you into the light
       D                                C     G
Did it let you know it always has your back
D                    C
What kind of love is stronger in the broken places
G
Fills up the lonely spaces
C
Picks you up when you fall down
G
Drives you home when you drunk downtown
            C                                            G
Or when you fall of the end of the earth cause it's gone flat
                           D
What kind of love is that?

[Interlude] x2

E|--------------------------------------------------------------------------|
B|-----3--3--3--3-------3--3-------3--3-----3--3--3--3-------3--3-----3--3--|
G|-----2--2--2--2-------2--2-------2--2-----2--2--2--2-------2--2-----2--2--|
D|--0--------------0h3-------------------0----------------------------------|
A|----------------------------0h3-----------------------0h3-----------------|
E|-----------------------------------------------------------------3--------|

[Verse]
D
What kind of love is that
C                    G
What kind of love is that
        D
Does it take all it can get?
C               G
Unwind you with regret
 D                            C   G
Turn a sunny day, blue & black
                  C                       G
What kind of love criticizes, ostracizes, cuts you down to size
C
Turns it's back when you need a friend
G
Walks away when the end begins
C                                        G
Leaves you when your wheels come off the track
G                              D
Boy, what kind of love is that?

E|---------------------------------------|
B|-----3--3--3--3-------3--3-------3--3--|
G|-----2--2--2--2-------2--2-------2--2--|
D|--0--------------0h3-------------------|
A|----------------------------0h3--------|
E|---------------------------------------|

                      C          G
                    What kind of love is that?

E|-------------------------------------|
B|-----3--3--3--3-------3--3-----3--3--|
G|-----2--2--2--2-------2--2-----2--2--|
D|--0----------------------------------|
A|-----------------0h3-----------------|
E|----------------------------3--------|

[Bridge]
        D                    C
And you hold me, when I need holding
        G                 D
And you heal me, when I'm broken
       D                C
From a dark dream, i've awoken
       G                  D
To the kindest words ever spoken
         C
And when I lost hope and I can't see
G
Somehow you believe in me
G                         D
What kind of love is that?

E|---------------------------------------|
B|-----3--3--3--3-------3--3-------3--3--|
G|-----2--2--2--2-------2--2-------2--2--|
D|--0--------------0h3-------------------|
A|----------------------------0h3--------|
E|---------------------------------------|

                      C          G
                    What kind of love is that?

E|-------------------------------------|
B|-----3--3--3--3-------3--3-----3--3--|
G|-----2--2--2--2-------2--2-----2--2--|
D|--0----------------------------------|
A|-----------------0h3-----------------|
E|----------------------------3--------|

[Verse]
D
What kind of love is that
C                    G
What kind of love is that
    D
You say my name so sweetly
C              G
Steal my heart completely
D                                     C     G
Dance with me even though my record's scratched
                    C
What kind of love is stronger in the broken places
G
Fills up the lonely spaces
C
Picks you up when you fall down
G
Set you right when you're spinning around
C                                           G
I spent my life trying to learn to love you back
G                        D
What kind of love is that

E|---------------------------------------|
B|-----3--3--3--3-------3--3-------3--3--|
G|-----2--2--2--2-------2--2-------2--2--|
D|--0--------------0h3-------------------|
A|----------------------------0h3--------|
E|---------------------------------------|

                      C          G
                    What kind of love is that?

E|-------------------------------------|
B|-----3--3--3--3-------3--3-----3--3--|
G|-----2--2--2--2-------2--2-----2--2--|
D|--0----------------------------------|
A|-----------------0h3-----------------|
E|----------------------------3--------|

E|--------------------------------------------------------------------------|
B|-----3--3--3--3-------3--3-------3--3-----3--3--3--3-------3--3-----3--3--|
G|-----2--2--2--2-------2--2-------2--2-----2--2--2--2-------2--2-----2--2--|
D|--0--------------0h3-------------------0----------------------------------|
A|----------------------------0h3-----------------------0h3-----------------|
E|-----------------------------------------------------------------3--------|

[Outro]
D
All God's children sing
C                    G
What kind of love is that
D
All God's children sing
C                    G
What kind of love is that
D
All God's children sing, Lord
C                    G
What kind of love is that
D
All God's children singing out
C
What kind of love
G
What kind of love is

E|---------------------------------------|
B|-----3--3--3--3-------3--3-------3--3--|
G|-----2--2--2--2-------2--2-------2--2--|
D|--0--------------0h3-------------------|
A|----------------------------0h3--------|
E|---------------------------------------|

                      C          G
                    What kind of love is that?

E|-------------------------------------|
B|-----3--3--3--3-------3--3-----3--3--|
G|-----2--2--2--2-------2--2-----2--2--|
D|--0----------------------------------|
A|-----------------0h3-----------------|
E|----------------------------3--------|

E|------------------------------------------------------------------------------|
B|-----3--3--3--3-------3--3-------3--3-----3--3--3--3-------3--3-----3--3----3-|
G|-----2--2--2--2-------2--2-------2--2-----2--2--2--2-------2--2-----2--2----2-|
D|--0--------------0h3-------------------0------------------------------------0-|
A|----------------------------0h3-----------------------0h3---------------------|
E|-----------------------------------------------------------------3------------|

            
            
Suggest correction
Creating personal tab
Creating personal tab
You can edit any tab online and save it as your Personal.

You can edit, replace or remove any tab part or add personal notes – all changes will be seen only by you.

Personal tabs can be accessed anytime from any device, even offline.
Learn more »
Give kudos to tab author, rate the tab!
1 2 3 4 5
comments
print report bad tab
guest
You may want to rate the tab now too:
select rating
Wanna post a correction for this tab? Suggest correction