Oops, an error
Loading. Please wait.

Fear Chords

10 views 1 this week
2 commentsread comments
1 2 3 4 5
2 more votes to show rating
add to favorites
launch autoscroll
font size
0
reset
transpose
0
reset
display chords
guitar tuner
Autoscroll
slow
fast
+/-
esc
set tempo
stop
Author
Difficulty
novice
About this tab version
Different because it is the first. Was this info helpful? Yes No
Strumming
There is no strumming pattern for this song yet. and get +5 IQ
[Intro Riff]
e|---------------------------------------------------------------------------|
B|-----5/7--10--12--5--3-----5/7-----5/7--10--12--5--3-----5/7-----5/7--10---|
G|--2---------------------2-------2---------------------2-------2------------|
D|---------------------------------------------------------------------------|
A|---------------------------------------------------------------------------|
E|---------------------------------------------------------------------------|

e|---------------------------------------------------------------------------|
B|--12--5--3-----5/7-----5/7-----5--3-----5/8--7--7--5--3--2-----------------|
G|------------2-------2-------2--------2-------------------------------------|
D|---------------------------------------------------------------------------|
A|---------------------------------------------------------------------------|
E|---------------------------------------------------------------------------|

[Intro] 
Em, D, Em, D, A

[Verse]
                Em
Now when did we learn to just settle here
                  D
I thought we were taught to wrestle down fear
              Em
And love is a thing that hearts only know
               D                     A
The body don't show, it does want to know

[Verse]
              Em
And fear is a friend who we all must revere
                D
Can make you do great things and bring you to tears
                  Em
And hope it ain’t lost you just can’t find it yet
                   D                          A
I’ll give her your best, you’ll meet her just yet

[Repeat Intro Riff]
Em, D, Em, D, A

[Verse]
             Em
You can have muscle as yellow as dirt
             D
Know all the truths and think lies never hurt
                 Em
And crying don’t make it, it just takes it worse
               D                        A
Cast the first scorn, we’ll all have to mourn

[Verse]
                 Em
And I just can’t stomach the things I regret
             D
Think of the pain and still have something left
           Em
You got it worse it just rolls off my hide
                 D                   A
Don’t shake your faith, or hit at my pride

[Bridge]
             Em
So go on and leave if you want to
          D
Go on and leave if you want to
             A               
I’ll be here holding on to everything you once held on to
G
Darlin’

[Chorus]
          D
So go and leave if you want to
          A
Go on and leave if you want to
             G
I’ll be here holding on to everything you once held on to 
D  A  G
Darlin
D     G
Woah, woah
D     A
Woah, woah

[Verse]
          Em
Here I am now alone in my bed 
            D
tossing and turning with you in my head
              Em
And every day since you left has been hell
           D                 A
Lonely and cruel thinking of you

[Intro Riff]

[Outro] 
Em, D, Em, D, A

End on D
Suggest correction
Give kudos to tab author, rate the tab!
1 2 3 4 5
comments
print report bad tab
2 comments total.
0 reply
j.lance.griffis 10 Apr 26, 2017 11:06 AM

👍

0 reply
j.lance.griffis 10 Apr 26, 2017 11:06 AM

You did good Kishy bear

guest
You may want to rate the tab now too:
select rating
Wanna post a correction for this tab? Suggest correction