Oops, an error
Loading. Please wait.

Oweynagat tab

by Dool
46 views 3 this week
no commentswrite comment
1 2 3 4 5
3 more votes to show rating
add to favorites
×
Save as Personal and add changes to this tab that will be seen only by you. Learn more ›
×
You can save this tab as Personal to edit and correct it or add notes. All changes will be seen only by you. Learn more »
launch autoscroll
font size
0
reset
how to read this tab
guitar tuner
edit
Autoscroll
slow
fast
+/-
esc
set tempo
stop
About this tab version
This tab was made for one guitar player that can play the main parts of the song. The band plays with three guitar players. I was mainly oriented on the original song from the record but I had also watched the few live videos that you can find. Specially at the end of the song, it was difficult to hear the individual parts. There is a lot of stuff going around with three guitars. I hope I could write it clear for you guys. cheers. Was this info helpful? Yes No
Artist: Dool
Song:   Oweynagat
Album:  Here Now, There Then (2017)
Label:  Prophecy Productions
Tuning: Drop D (DADGBe)
Tabbed by: dupree79

[Clean Intro] 
(2 times)
e|--------------------------------|
b|--------------------------1-----|
g|--------5--------5-----------3--|
D|-----5--------6--------3--------|
A|--3--------4--------1-----------|
D|--------------------------------|

[Verse] 
(4 times)
e|---------------------------------|----------------------------|----------------------------------------|
b|---------------------------------|----------------------------|----------------------------------------|
g|---------------------------------|----------------------------|----------------------------------------|
D|---------------------------------|----------------------------|----------------------------------------|
A|---------------------------------|----------------------------|----------------------------------------|
D|--10--10--10--10--10--10--10--10-|-11--11--11--11--11--11--11-|-6--8--8--8--8--8--8--8--8--8--8--8--8--|
 
e|--------------|
b|--------------|
g|--------------|
D|--------------|
A|--------------|
D|--8--8--8--8--|

[Chorus]
(2 times)
e|-------------|------------|------------|------------|------------|------------|------------|-------------|
b|-------------|------------|------------|------------|------------|------------|------------|-------------|
g|-------------|------------|------------|------------|------------|------------|------------|-------------|
D|-------------|------------|------------|------------|------------|------------|------------|-------------|
A|--3--3--3--3-|-3--3--3--3-|-3--3--3--3-|-3--3--3--3-|-3--3--3--3-|-3--3--3--3-|-3--3--3--3-|-3--3--3--3--|
D|--3--3--3--3-|-3--3--3--3-|-3--3--3--3-|-3--3--3--3-|-3--3--3--3-|-3--3--3--3-|-3--3--3--3-|-3--3--3--3--|
 
e|-----------------|----------------|----------------|----------------|------------|------------|
b|-----------------|----------------|----------------|----------------|------------|------------|
g|-----------------|----------------|----------------|----------------|------------|------------|
D|-----------------|----------------|----------------|----------------|------------|------------|
A|--10--10--10--10-|-10--10--10--10-|-10--10--10--10-|-10--10--10--10-|-8--8--8--8-|-8--8--8--8-|
D|--10--10--10--10-|-10--10--10--10-|-10--10--10--10-|-10--10--10--10-|-8--8--8--8-|-8--8--8--8-| 

e|--------------|-------------|
b|--------------|-------------|
g|--------------|-------------|
D|--------------|-------------|
A|--8--8--8--8--|-8--8--8--8--|
D|--8--8--8--8--|-8--8--8--8--|

[Interlude 1] 
(at 1:13 min | 2 times)
e|------------------------------|--------------|
b|------------------------------|--------------|
g|--10h12--10--12b13--12p10-----|--------------|
D|---------------------------11-|-8--8--10-----|
A|------------------------------|-----------8--|
D|------------------------------|--------------|
                                            ~

[Verse] 
(4 times)
e|---------------------------------|----------------------------|----------------------------------------|
b|---------------------------------|----------------------------|----------------------------------------|
g|---------------------------------|----------------------------|----------------------------------------|
D|---------------------------------|----------------------------|----------------------------------------|
A|---------------------------------|----------------------------|----------------------------------------|
D|--10--10--10--10--10--10--10--10-|-11--11--11--11--11--11--11-|-6--8--8--8--8--8--8--8--8--8--8--8--8--|
 
e|--------------|                       e|---------------|
b|--------------|                       b|---------------|
g|--------------|  (verse ends after    g|---------------|
D|--------------|  the last run with)   D|--8--8--10-10--|
A|--------------|                       A|--6--6--8--8---|
D|--8--8--8--8--|                       D|---------------|

[Chorus] 
(2 times)
e|-------------|------------|------------|------------|------------|------------|------------|-------------|
b|-------------|------------|------------|------------|------------|------------|------------|-------------|
g|-------------|------------|------------|------------|------------|------------|------------|-------------|
D|-------------|------------|------------|------------|------------|------------|------------|-------------|
A|--3--3--3--3-|-3--3--3--3-|-3--3--3--3-|-3--3--3--3-|-3--3--3--3-|-3--3--3--3-|-3--3--3--3-|-3--3--3--3--|
D|--3--3--3--3-|-3--3--3--3-|-3--3--3--3-|-3--3--3--3-|-3--3--3--3-|-3--3--3--3-|-3--3--3--3-|-3--3--3--3--|
 
e|-----------------|----------------|----------------|----------------|------------|------------|
b|-----------------|----------------|----------------|----------------|------------|------------|
g|-----------------|----------------|----------------|----------------|------------|------------|
D|-----------------|----------------|----------------|----------------|------------|------------|
A|--10--10--10--10-|-10--10--10--10-|-10--10--10--10-|-10--10--10--10-|-8--8--8--8-|-8--8--8--8-|
D|--10--10--10--10-|-10--10--10--10-|-10--10--10--10-|-10--10--10--10-|-8--8--8--8-|-8--8--8--8-| 

e|--------------|-------------|
b|--------------|-------------|
g|--------------|-------------|
D|--------------|-------------|
A|--8--8--8--8--|-8--8--8--8--|
D|--8--8--8--8--|-8--8--8--8--|

[Interlude 2] 
(starts @ 2:26 min)
e|-------------------------|---------------------------|-------------|
b|-------------------------|---------------------------|-------------|
g|-------------------------|---------------------------|-------------|
D|--3--6--6--6--5--3--5--6-|-1--3--6--6--6--5--3--5--6-|-1--(3)------|
A|--3----------------------|-1--3----------------------|-1--(3)------|
D|--3----------------------|-1--3----------------------|-1--(3)------|
                         ~                           ~

[Interlude 3] 
(starts @ 2:41 min | This melody line runs almost to the end)
e|-------------|------------|------------|------------|-------------|-------------|
b|-------------|------------|------------|------------|-------------|-------------|
g|-------------|------------|------------|------------|-------------|-------------|
D|--6--6--5----|-6--6--5----|-5--5--3--5-|-5--5--3--5-|-6--6--5--6--|-6--6--5--6--|
A|-----------3-|----------3-|------------|------------|-------------|-------------|
D|-------------|------------|------------|------------|-------------|-------------|
 
e|-------------|-------------|
b|-------------|-------------|
g|-------------|-------------|
D|--5--5--3--5-|-5--5--3--5--|
A|-------------|-------------|
D|-------------|-------------|

[Solo part 1] 
(start @ 4:08 min)
e|------------------|-------------------|----------------|--------------|
b|------------------|-------------------|----------------|-11b12b13--11-|
g|------10--12--10\-|-12b13--12---------|-----10--12--10-|--------------|
D|-/13--------------|------------10--10-|-13-------------|--------------|
A|------------------|-------------------|----------------|--------------|
D|------------------|-------------------|----------------|--------------|
                ~            ~       ~                ~              ~

e|----------------------------------|-15b16--15--15h16--13--15--16--20\--|
b|--17b18--17b18--17b18--17--13--13-|------------------------------------|
g|----------------------------------|------------------------------------|
D|----------------------------------|------------------------------------|
A|----------------------------------|------------------------------------|
D|----------------------------------|------------------------------------|
                         ~        ~          ~                                          
 
[Solo part 2] 
(start @ 4:37 min | repeat 4 times)
e|--16--13------13-|-16--13------13-|-16--13------13-|-16--13------13--|
b|----------13-----|---------13-----|---------13-----|---------13------|
g|-----------------|----------------|----------------|-----------------|
D|-----------------|----------------|----------------|-----------------|
A|-----------------|----------------|----------------|-----------------|
D|-----------------|----------------|----------------|-----------------|
 
e|--15--13------13-|-15--13------13-|-15--13------13-|-15--13------13--|
b|----------13-----|---------13-----|---------13-----|---------13------|
g|-----------------|----------------|----------------|-----------------|
D|-----------------|----------------|----------------|-----------------|
A|-----------------|----------------|----------------|-----------------|
D|-----------------|----------------|----------------|-----------------|
 
e|--16--13------13-|-16--13------13-|-16--13------13-|-16--13------13--|
b|----------14-----|---------14-----|---------14-----|---------14------|
g|-----------------|----------------|----------------|-----------------|
D|-----------------|----------------|----------------|-----------------|
A|-----------------|----------------|----------------|-----------------|
D|-----------------|----------------|----------------|-----------------|
 
e|--16--13------13-|-16--13------13-|-16--13------13-|-16--13------13--|
b|----------15-----|---------15-----|---------15-----|---------15------|
g|-----------------|----------------|----------------|-----------------|
D|-----------------|----------------|----------------|-----------------|
A|-----------------|----------------|----------------|-----------------|
D|-----------------|----------------|----------------|-----------------|

(last melody line start @ 5:35 min | repeat 2 times)
e|-------------|------------|------------|-------------|
b|-------------|------------|------------|-------------|
g|-------------|------------|------------|-------------|
D|--6--3-----3-|-6--3-----3-|-6--3-----3-|-6--3-----3--|
A|--------3----|-------3----|-------3----|-------3-----|
D|-------------|------------|------------|-------------|
 
e|-------------|------------|------------|-------------|
b|-------------|------------|------------|-------------|
g|-------------|------------|------------|-------------|
D|--5--3-----3-|-5--3-----3-|-5--3-----3-|-5--3-----3--|
A|--------3----|-------3----|-------3----|-------3-----|
D|-------------|------------|------------|-------------|
 
e|-------------|------------|------------|-------------|
b|-------------|------------|------------|-------------|
g|-------------|------------|------------|-------------|
D|--6--3-----3-|-6--3-----3-|-6--3-----3-|-6--3-----3--|
A|--------4----|-------4----|-------4----|-------4-----|
D|-------------|------------|------------|-------------|

e|-------------|------------|------------|-------------|
b|-------------|------------|------------|-------------|
g|-------------|------------|------------|-------------|
D|--6--3-----3-|-6--3-----3-|-6--3-----3-|-6--3-----3--|
A|--------5----|-------5----|-------5----|-------5-----|
D|-------------|------------|------------|-------------|

[Rhythm part 1] 
(start @ 6:04 min | 2 times)
e|-------------|------------|------------|-------------|
b|--6--6--6--6-|------------|------------|-------------|
g|--5--5--5--5-|-5--5--5--5-|-6--6--6--6-|-7--7--7--7--|
D|--3--3--3--3-|-5--5--5--5-|-6--6--6--6-|-7--7--7--7--|
A|-------------|-3--3--3--3-|-4--4--4--4-|-5--5--5--5--|
D|-------------|------------|------------|-------------|

[Final rhythm part 2] 
(start @ 6:33 min | played once)
e|----------------|----------------|---------------|----------------|
b|--6-------------|--6-------------|---------------|----------------|
g|--5-------------|--5-------------|-5-------------|-5--------------|
D|--3----------- -|--3-------------|-5-------------|-5--------------|
A|-----3--3--3--3-|-----3--3--3--3-|-3--3--3--3--3-|-3--3--3--3--3--|
D|-----3--3--3--3-|-----3--3--3--3-|----3--3--3--3-|----3--3--3--3--|
       PM-------|       PM-------|      PM-------|      PM-------|
 
e|----------------|---------------|---------------|------------------|
b|----------------|---------------|---------------|------------------|
g|--6-------------|-6-------------|-7-------------|-7----------------|
D|--6-------------|-6-------------|-7-------------|-7----------------|
A|--4--3--3--3--3-|-4--3--3--3--3-|-5--3--3--3--3-|-5--3--3--3--3----|
D|-----3--3--3--3-|----3--3--3--3-|----3--3--3--3-|----3--3--3--3----|
       PM-------|      PM-------|      PM-------|      PM-------|


************************************

| ~   vibrato
| b   bend
| p   pull off
| h   hammer on
| /   slide up
| \   slide down
| (n) ghost note
| pm  palm mute

************************************

            
            
Suggest correction
Creating personal tab
Creating personal tab
You can edit any tab online and save it as your Personal.

You can edit, replace or remove any tab part or add personal notes – all changes will be seen only by you.

Personal tabs can be accessed anytime from any device, even offline.
Learn more »
Give kudos to tab author, rate the tab!
1 2 3 4 5
comments
print report bad tab
guest
You may want to rate the tab now too:
select rating
Wanna post a correction for this tab? Suggest correction