Oops, an error
Loading. Please wait.

At Dooms Gate Tab

by Doom
9,291 views 141 this week
no commentswrite comment
1 2 3 4 5
accurate
x 5
add to favorites
launch autoscroll
font size
0
reset
how to read this tab
guitar tuner
Autoscroll
slow
fast
+/-
esc
set tempo
stop
Help us to improve Ultimate-Guitar.com Take our survey!
×
Author
Difficulty
advanced
DOOM
At doom gate

This is not my song and it belongs to ID Software!

TAB BY:
Atian

CHORDS AND SCALES:
B minor, E Major, G minor and D Major

Play in D-drop or Standard.. Your choice!
(BPM 126-128-132) play between Moderato and Allegro

 * Palm-mute
 P Pull-of
 H Hammer-on
 V vibrato
 ¤ Harmonics
 B Bends
 S Slides


The Licks are made by me and think they will sound like that
and I add a little extra feel to it.. :P

I made this tab while I was listning to Doom snes song..
But after that I was listing to pc version.
It was some minor changes in there.
Two synths was played there.

The first synth is played exactly from snes Doom song
The second synth is kinda exactly but half the song is exact as the first synth but the 
second half is another key.

This is the setting I playing with:
6-7 gain, 7-8 Bass, 3-4 mid, 6-7 treble and but 2 o´clock the reverb

Plays this song with a band or two guitarist and good luck!

First Guitarist is more to Bass
Second Guitarist is more to Treble
listen here: http://www.youtube.com/watch?v=BSsfjHCFosw

This is my first tab...
You have my mail if you dont like it! >:)
Musican_seba@live.se







            First Guitarist comes in!

     **    *    *    *   H P  **   *    *    * v
e|--------------------------------------------------|
B|--------------------------------------------------|
G|--------------------------------------------------|
D|---------------------------------------------4----|  X 3
A|-----7----5----3----2-2h3p2---7----5----3----2vv--|
D|---00----0----0----0--------00----0----0----0-----|

              Second Guitarist comes in!

     **    *    *    *   H P  **    *    *                 ¤v ¤v
e|------------------------------------------------------------------|
B|------------------------------------------------------------------|
G|------------------------------------------------------------------|
D|-------------------------------------------4h6p4h6p4-----4v-6vv---|  X 1
A|-----7----5----3----2-2h3p2---7----5----3-----------6p4h6---------|
D|---00----0----0----0--------00----0----0--------------------------|

-----------------------------------------------------

     **    *    *    *   H P  **   *    *    * v
e|--------------------------------------------------|
B|--------------------------------------------------|
G|--------------------------------------------------|
D|---------------------------------------------4----|  X 1
A|-----7----5----3----2-2h3p2---7----5----3----2vv--|
D|---00----0----0----0--------00----0----0----0-----|
     **    *    *    *   H P  **    *    *                    ¤v
e|-----------------------------------------------------------------|
B|-----------------------------------------------------------------|
G|----------------------------------------------------------4------|
D|-------------------------------------------4h6p4h6p4-----4--6vv--|  X 1
A|-----7----5----3----2-2h3p2---7----5----3-----------6p4h6--------|
D|---00----0----0----0--------00----0----0-------------------------|

-----------------------------------------------------


    **     *    *    *   H P  **    *    *    * v
e|--------------------------------------------------|
B|--------------------------------------------------|
G|---------------------------------------------4----|
D|-----7----5----3----2-2h3p2---7----5----3----2vv--|  X 1
A|---00----0----0----0--------00----0----0----0-----|
D|--------------------------------------------------|

    **     *    *    *   H P  **    *    *                                  ¤v
e|-------------------------------------------------------------------------------|
B|-------------------------------------------------------------------------------|
G|-------------------------------------------6p4h6p4-4-7p6p4-6p4h6p4------4-6vv--|
D|-----7----5----3----2-2h3p2---7----5----3--------------------------6p4h6-------|  X 1
A|---00----0----0----0--------00----0----0---------------------------------------|
D|-------------------------------------------------------------------------------|

-----------------------------------------------------

     **    *    *    *   H P  **   *    *    * v
e|--------------------------------------------------|
B|--------------------------------------------------|
G|--------------------------------------------------|
D|---------------------------------------------4----|  X 2
A|-----7----5----3----2-2h3p2---7----5----3----2vv--|
D|---00----0----0----0--------00----0----0----0-----|

    **     *    *    *   H P  **    *    *    * v
e|--------------------------------------------------|
B|--------------------------------------------------|
G|---------------------------------------------4----|
D|-----7----5----3----2-2h3p2---7----5----3----2vv--|  X 1
A|---00----0----0----0--------00----0----0----0-----|
D|--------------------------------------------------|

     **    *    *    *   H  P **    *    *                             ¤v
e|--------------------------------------------------------------------------|
B|--------------------------------------------------------------------------|
G|------------------------------------------------------------------2-------|
D|-------------------------------------------4p2-4p2-5p4p2-4p2-----2-2------|  X 1
A|-----7----5----3----2-2h3p2---7----5----3-------------------4p2h4----4vv--|
D|---00----0----0----0--------00----0----0----------------------------------|

-----------------------------------------------------

     **    *    *    *   H P  **   *    *    * v
e|--------------------------------------------------|
B|--------------------------------------------------|
G|--------------------------------------------------|
D|---------------------------------------------4----|  X 1
A|-----7----5----3----2-2h3p2---7----5----3----2vv--|
D|---00----0----0----0--------00----0----0----0-----|


     **    *    *    *   H P **    *    *                            ¤^ ^   ¤v
e|-------------------------------------------------------------------------------|
B|-------------------------------------------------------------------------------|
G|--------------------------------------------5p4p2-4p2-4p2-------2-(4b6b2)-4vv--|
D|----------------------------------------------------------4p2h4----------------|  X 1
A|-----7----5----3----2-2h3p2---7-----5----3-------------------------------------|
D|---00----0----0----0--------00----0----0---------------------------------------|

-----------------------------------------------------

                  First Guitarist

    **     *    *    *   H P  **    *    *    * v
e|--------------------------------------------------|
B|--------------------------------------------------|
G|---------------------------------------------4----|
D|-----7----5----3----2-2h3p2---7----5----3----2vv--|  X 1
A|---00----0----0----0--------00----0----0----0-----|
D|--------------------------------------------------|
    **     *    *    *   P H **    *    *      v  ¤          v  ¤   ¤v
e|-----------------------------------------------------------------------|
B|------------------------------------------5--------------5-------------|
G|------------------------------------------4b6vv-6b4p2h4b6-6vv-6b4-6vv--|
D|-----7----5----3----2-2h3p---7----5----3-------------------------------|  X 1
A|---00----0----0----0-------00----0----0--------------------------------|
D|-----------------------------------------------------------------------|

                  Second Guitarist
        Here changes second guitarist the key!

    **     *    *    *   H P  **    *    *    * v
e|--------------------------------------------------|
B|--------------------------------------------------|
G|---------------------------------------------7----|
D|-----10---8----6----5-5h6p5---10---8----6----5vv--|  X 1
A|---00----0----0----0--------00----0----0----0-----|
D|--------------------------------------------------|

    **     *    *    *   P H **    *    *      v  ¤          v  ¤   ¤v
e|-----------------------------------------------------------------------|
B|------------------------------------------5--------------5-------------|
G|------------------------------------------4b6vv-6b4p2h4b6-6vv-6b4-6vv--|
D|-----10---8----6----5-5h6p5---10---8----5------------------------------|  X 1
A|---00----0----0----0--------00----0----0-------------------------------|
D|-----------------------------------------------------------------------|

-----------------------------------------------------

                   First Guitarist

     **    *    *    *   H P  **    *    *    * v
e|--------------------------------------------------|
B|--------------------------------------------------|
G|--------------------------------------------------|
D|---------------------------------------------4----|  X 1
A|-----7----5----3----2-2h3p2---7----5----3----2vv--|
D|---00----0----0----0--------00----0----0----0-----|

     **    *    *    *   H P  **    *    *    s             v   ¤     v
e|------------------------------------------------------------------------|
B|--------------------------------------------------------5---------------|
G|---------------------------------------------------2-4b6-6vv-6b4p2------|
D|-----------------------------------------------2h4-----------------4vv--|  X 1
A|-----7----5----3----2-2h3p2---7----5----3--2/4--------------------------|
D|---00----0----0----0--------00----0----0--------------------------------|

                  Second Guitarist

    **     *    *    *   H P  **    *    *    * v
e|--------------------------------------------------|
B|--------------------------------------------------|
G|---------------------------------------------7----|
D|-----10---8----6----5-5h6p5---10---8----6----5vv--|  X 2
A|---00----0----0----0--------00----0----0----0-----|
D|--------------------------------------------------|

-----------------------------------------------------

                   First Guitarist

    **     *    *    *   H P **    *    *    * v
e|--------------------------------------------------|
B|--------------------------------------------------|
G|---------------------------------------------4----|
D|-----7----5----3----2-2h3p2---7----5----3----2vv--|  X 2
A|---00----0----0----0--------00----0----0----0-----|
D|--------------------------------------------------|

    **     *    *    *   p H  **    *    *    * v
e|--------------------------------------------------|
B|--------------------------------------------------|
G|---------------------------------------------4----|
D|-----7----5----3----2-2h3p2---7----5----3----2vv--|  X 1
A|---00----0----0----0--------00----0----0----0-----|
D|--------------------------------------------------|

    **     *    *    *   H P  **    *    *    s           v  ¤        ¤               ¤v
e|-----------------------------------------------------------------------------------------|
B|------------------------------------------------------7----------------------------------|
G|-----------------------------------------------2-2-6b8-8vv-8b6p4-6-7p6p4-6p4-------66vv--|
D|-----7----5----3----2-2h3p2---7----5----3-2/6-4-4---------------------------6p4h6--------|
A|---00----0----0----0--------00----0----0-------------------------------------------------|
D|-----------------------------------------------------------------------------------------|

                  Second Guitarist

    **     *    *    *   H P  **    *    *    * v
e|--------------------------------------------------|
B|--------------------------------------------------|
G|---------------------------------------------7----|
D|-----10---8----6----5-5h6p5---10---8----6----5vv--|  X 2
A|---00----0----0----0--------00----0----0----0-----|
D|--------------------------------------------------|

    **     *    *    *   H P  **    *    *    * v
e|--------------------------------------------------|
B|--------------------------------------------------|
G|---------------------------------------------7----|
D|-----10---8----6----5-5h6p5---10---8----6----5vv--|  X 1
A|---00----0----0----0--------00----0----0----0-----|
D|--------------------------------------------------|

    **     *    *    *   H P  **    *    *    * v
e|--------------------------------------------------|
B|--------------------------------------------------|
G|---------------------------------------------7----|
D|-----10---8----6----5-5h6p5---10---8----6----5vv--|  X 1
A|---00----0----0----0--------00----0----0----0-----|
D|--------------------------------------------------|


FINITO!!
Suggest correction
comments
print report bad tab
guest
You may want to rate the tab now too:
select rating
Wanna post a correction for this tab? Suggest correction