Oops, an error
Loading. Please wait.

Killing Time tab

version 1
version 1

Whole song

Interactive

5,023 views 1 this week
1 commentread comment
1 2 3 4 5
1 last vote to show rating
add to favorites
×
Save as Personal and add changes to this tab that will be seen only by you. Learn more ›
×
You can save this tab as Personal to edit and correct it or add notes. All changes will be seen only by you. Learn more »
launch autoscroll
font size
0
reset
how to read this tab
guitar tuner
edit
Autoscroll
slow
fast
+/-
esc
set tempo
stop
Doom Unit - Killing Time

Tuning: Drop C

h = hammer
p = pull off
s = slide


Intro:

D-----------------------------------------------------------|
A-----------------------------------------------------------|
F-----------------------------------------------------------|
C-----------------------------------------------------------|
G-----------------------------------------------------------|
C---0-0-----0-0-----0-0------7s0----------------------------|

Main Chorus Riff:

D----------------------------------------------------------|
A----------------------------------------------------------|
F----------------------------------------------------------|  x3
C----------------------------------------------------------|
G-------------------------------------5--------------------|
C---0-0-----0-0-----0-0-----0h3p0-----5--------------------|


Main chorus riff end:

D------------------|
A------------------|
F------------------|
C-----------5------|
G--0--3--5--3------|
C--0--3--5---------|

Verse Riff : (I know the wise man is always right...never seen forgiveness in his eyes)

D----------------------------------------------------------------------|
A----------------------------------------------------------------------|
F-------------------------------------------------5--7-----------------|
C-------------------------------------------------3--5-----------------|  x4
G-------------------------------------------------3--5-----------------|
C---0-0-----0-0-----0-0-----0-0-----0-0----0-0----3--5-----------------|

Interlude : (This is where it all ends....it's my deliverance.....I'd rather lay down 
die then feel like a fool...)

D---------------------------------------|------------------------------------------|
A---------------------------------------|------------------------------------------|
F----5---5----5---5---------------------|----5---5----5---5------------------------|
C------5--------5-------7-----3---------|------5--------5-------7-------3------3s5-|
G--3--------3--------5----3h5----5--3h5-|---3--------3-------5-----3h5-----5-------|
C---------------------------------------|------------------------------------------|


Interlude :


       I'll rather lay down n die...   -   if I'm right... I'm satisfied
D---------------------------------------|---------------------------------------|
A---------------------------------------|---------------------------------------|
F----5---5----5---5---------------------|----5------------------10--------------|
C------5--------5-----7------3----------|---------------------------------------|
G--3--------3-------5---3h5-----5---3h5-|----3------------------8---------------|
C---------------------------------------|---------------------------------------|


Chorus:

  (killing time killing time)              (we're going down,down,down,down)
D-----------------------------|         |-------------------------------------|
A-----------------------------|         |-------------------------------------|
F-----------------------------| x3      |-------------------------------------|
C-----------------------------|         |-------------------------------------|
G------------------------5----|         |------------------7---5---3---5------|
C--00---00---00---0h3p0--5----|         |------------------7---5---3---5------|


SOLO:

D---------------|------------------|----------------------|----------8---------------|
A-------6h8-----|---------6h8s10---|--8s10---10---6h8-----|--10---10---10---10---8s6-|
F--7--7------7--|---7--7-----------|-------------------7--|--------------------------|
C---------------|------------------|----------------------|--------------------------|
G---------------|------------------|----------------------|--------------------------|
C---------------|------------------|----------------------|--------------------------|


Enjoy..:)
www.doomunit.com

            
            
Suggest correction
Creating personal tab
Creating personal tab
You can edit any tab online and save it as your Personal.

You can edit, replace or remove any tab part or add personal notes – all changes will be seen only by you.

Personal tabs can be accessed anytime from any device, even offline.
Learn more »
Give kudos to tab author, rate the tab!
1 2 3 4 5
comments
print report bad tab
1 comment total.
0 reply
detrith 10 Jun 29, 2010 12:09 AM

Muuten kiva tab, mutta miksi intro ja verse riffissä pitäisi vapaata C kieltä soittaa kaksi kertaa. Mielestäni levyllä sitä soitetaan vaan kerran, ja tämä tyyli kuulostaa paremmalta. Tämä on mielestäni oikea verse riff.

D ------------------------------------------
A ------------------------------------------
F --------------------5-7-------------------
C --------------------3-5-------------------
G --------------------3-5-------------------
C -0--0--0--0--0--0---3-5-------------------


Ja sama homma kaikissa missä on että tulisi soitta kaksi kertaa.

guest
You may want to rate the tab now too:
select rating
Wanna post a correction for this tab? Suggest correction