Oops, an error
Loading. Please wait.

Come Alive Bass Tab

462 views 3 this week
no commentswrite comment
1 2 3 4 5
please rate
add to favorites
launch autoscroll
font size
0
reset
guitar tuner
Tab Pro tools
  • play this tab
  • loop segment
  • change instrument
  • show fretboard
  • metronome
Autoscroll
slow
fast
+/-
esc
set tempo
stop
Contributor
Difficulty
Tuning
novice
D A D G B E
I searched the internet for this Tab and couldn't find it. I'm sure it's not perfect, but it fits.

G------------------------------------------------------------------------------|
D--(0)-------------------------------------------------------------------------|
A--(0)-------------------------------------------------------------------------|
D--0---------------------------------------------------------------------------|

G------------------------------------------------------------------------------|
D------------------------------------------------------------------------------|
A--55555555--3/55555555--3/55555555--3-----------------------------------------|
D----------------------------------------55555555------------------------------|


G---------------------------------------------------------------------------------|
D---------------------------------------------------------------------------------|
A-5555555-333-111-33--------------------33333333-111-3333-5555555-3/5555555-------|
D---------------------5555555-3/5555555-------------------------------------------|


G--------------------------------------------------------------------------------|
D------------------------------------------------------------------------------3-|
A-5555555-333-111-33--------------------33333333-111-3333-5555555-3/555-3/5------|
D---------------------5555555-5-5-3-1-0------------------------------------------|


G-------------------------------------------------------------------------------|
D-------------------------------------------------------------------------------|
A-------------------------------------------------------------------------------|
D-33----55---00000000-----------------------------------------------------------|

G-------------------------------------------------------------------------------|
D-------------------------------------------------------------------------------|
A-------------------------------------------------------------------------------|
D-3-5-000000-------3-5-0--------------------------------------------------------|

G---------------------------------------------------------------------------------|
D---------------------------------------------------------------------------------|
A-5---5-3-0-1------1-0------------------------------------------------------------|
D-----------------------3-5----5-3-5-0--(0/12)------------------------------------|
comments
We did not receive enough feedback on this tab! Please rate:
print report bad tab
1 2 3 4 5
I want to post or [tab]
guest
You may want to rate the tab now too:
select rating
Please do not post tabs as comments. Select "correction" instead!