Oops, an error
Loading. Please wait.

Crooked Path Tab

version 1
version 1

Whole song

1,658 views 1 this week
no commentswrite comment
1 2 3 4 5
please rate
add to favorites
launch autoscroll
font size
0
reset
how to read this tab
guitar tuner
Autoscroll
slow
fast
+/-
esc
set tempo
stop
Help us to improve Ultimate-Guitar.com Take our survey!
×
Author
Difficulty
intermediate
----------------------------------------------------------------------------                      
Crooked Path - Doomriders
----------------------------------------------------------------------------
Tabbed by:
Email:

Tuning: Drop D

Intro (0:04-0:30)

Slow

Guitar I
e|-------------------------------------------------------------------------|
B|-------------------------------------------------------------------------|
G|-------------------------------------------------------------------------|
D|--5~--------------3~--------------8~----------7--\--5--------------------|
A|--5~--------------3~--------------8~----------7--\--5--------------------|
D|--5~--------------3~--------------8~----------7--\--5--------------------|


Guitar II
e|-------------------------------------------------------------------------|
B|-------------------------------------------------------------------------|
G|----------------------5---------------7---5~-----------------------------|
D|------------------7-------7~------8-----------7-8-7-5---8~---------------|
A|----------5---8----------------------------------------------------------|
D|--5---8------------------------------------------------------7---8-------|

Guitar I
e|-------------------------------------------------------------------------|
B|-------------------------------------------------------------------------|
G|-------------------------------------------------------------------------|
D|--5~--------------3~--------------8~----------7-8-7-5--------------------|
A|--5~--------------3~--------------8~----------7-8-7-5--------------------|
D|--5~--------------3~--------------8~----------7-8-7-5--------------------|


Guitar II
e|-------------------------------------------------------------------------|
B|-------------------------------------------------------------------------|
G|----------------------5---------------7---5~-----------------------------|
D|------------------7-------7~------8-----------7-8-7-5---8~---------------|
A|----------5---8----------------------------------------------------------|
D|--5---8------------------------------------------------------7---8-------|


Guitar I
e|-------------------------------------------------------------------------|
B|-------------------------------------------------------------------------|
G|-------------------------------------------------------------------------|
D|----------------------------------------------------------------\-\------|
A|----------------------------------------------------------------\-\------|
D|----------------------------------------------------------------\-\------|
                                                               Pick Slide
Verse (0:31-0:54)

Galloping rhythm

Guitar I
e|-------------------------------------------------------------------------|
B|-------------------------------------------------------------------------|
G|-------------------------------------------------------------------------|
D|--5--5-5-5------3--3-3-3------8--8-8-8------5--5-5-5---------------------|
A|--5--5-5-5------3--3-3-3------8--8-8-8------5--5-5-5---------------------|
D|--5--5-5-5-x4---3--3-3-3-x4---8--8-8-8-x4---5--5-5-5-x4------------------|

Guitar II
e|-------------------------------------------------------------------------|
B|-------------------------------------------------------------------------|
G|----------------------5---------------7---5~-----------------------------|
D|------------------7-------7~------8-----------7-8-7-5---8~---------------|
A|----------5---8----------------------------------------------------------|
D|--5---8------------------------------------------------------7---8-------|

Guitar I & II do a variation of the riff above here

[Riff 0:55-1:18]

Faster

Bridge (1:19-1:41)

Guitar I & II (listen for strum pattern)
e|-------------------------------------------------------------------------|
B|-------------------------------------------------------------------------|
G|-------------------------------------------------------------------------|
D|--5-5-5-5--3-3-3-3--8-8-8-8--5-5-5-5---5--3--5--7---7--------------------|
A|--5-5-5-5--3-3-3-3--8-8-8-8--5-5-5-5---5--3--5--7---7--------------------|
D|--5-5-5-5--3-3-3-3--8-8-8-8--5-5-5-5---5--3--5--7---7--------------------|
Repeat twice

Harmony (1:42-2:05)

Guitar I
e|-------------------------------------------------------------------------|
B|-------------------------------------------------------------------------|
G|-------------------------------------------------------------------------|
D|------------8--7~-------------8--7~---8h7p8-5~---------------------------|
A|--5--7--8------------5--7--8---------------------------------------------|
D|-------------------------------------------------------------------------|

Guitar II
e|-------------------------------------------------------------------------|
B|-------------------------------------------------------------------------|
G|------------8--6~-------------8--6~---6h8p6-6~---------------------------|
D|--------7------------------7---------------------------------------------|
A|--8--10--------------8--10-----------------------------------------------|
D|-------------------------------------------------------------------------|
Repeat x4

Back to Bridge x2 (2:06-2:29)
Then Harmony riff x4 (2:30-2:53)

Then from there you can figure out the rest pretty easily, it all follows the same scale.




| /  slide up
| \  slide down
| h  hammer-on
| p  pull-off
| ~  vibrato
| +  harmonic
| x  Mute note
===============================================================================
Suggest correction
What's this?
You can suggest a correction to this tab. Community and Mods will review your correction and vote to approve or reject it.
comments
We did not receive enough feedback on this tab! Please rate:
print report bad tab
1 2 3 4 5
guest
You may want to rate the tab now too:
select rating
Please do not post tabs as comments. Select "correction" instead!